0
SECTION
2
HEADER
9
$ACADVER
1
AC1500
9
$ACADMAINTVER
70
0
9
$DWGCODEPAGE
3
ANSI_1250
9
$EXTMIN
10
881980.
20
295560.
30
0.
9
$EXTMAX
10
886939.99899999995
20
298299.99900000001
30
0.
9
$INSBASE
10
886939.99899999995
20
298299.99900000001
30
0.
9
$LTSCALE
40
1
9
$LUNITS
70
2
9
$LUPREC
70
10
9
$HANDLING
70
0
9
$HANDSEED
5
999999
0
ENDSEC
0
SECTION
2
CLASSES
0
CLASS
1
LWPOLYLINE
2
AcDbPolyline
3
AutoCAD
90
0
280
0
281
1
0
CLASS
1
WIPEOUT
2
AcDbWipeout
3
WIPEOUT
90
127
280
0
281
1
0
CLASS
1
WIPEOUTVARIABLES
2
AcDbWipeoutVariables
3
WIPEOUT
90
0
280
2
281
0
0
ENDSEC
0
SECTION
2
TABLES
0
TABLE
2
VPORT
5
72e43
100
AcDbSymbolTable
70
0
0
VPORT
5
72e44
100
AcDbSymbolTableRecord
100
AcDbViewportTableRecord
70
0
2
*ACTIVE
10
0.0
20
0.0
11
1.0
21
1.0
12
2.905518
22
5.209305
13
0.0
23
0.0
14
0.5
24
0.5
15
0.5
25
0.5
16
0
26
0
36
1.0
17
0.0
27
0.0
37
0.0
40
24.921886
41
1.826004
42
50
43
0.0
44
0.0
50
0.0
51
0.0
71
0
72
100
73
1
74
1
75
0
76
0
77
0
78
0
0
ENDTAB
0
TABLE
2
LTYPE
5
72e45
100
AcDbSymbolTable
70
23.
0
LTYPE
5
72e46
100
AcDbSymbolTableRecord
100
AcDbLinetypeTableRecord
2
ByBlock
70
0
3

72
65
73
0
40
0
0
LTYPE
5
72e47
100
AcDbSymbolTableRecord
100
AcDbLinetypeTableRecord
2
ByLayer
70
0
3

72
65
73
0
40
0
0
LTYPE
5
72e48
100
AcDbSymbolTableRecord
100
AcDbLinetypeTableRecord
2
0_16_-_Folyamatos
70
0
3

72
65
40
0.
73
0
0
LTYPE
5
72e49
100
AcDbSymbolTableRecord
100
AcDbLinetypeTableRecord
2
0_18_-_Folyamatos_
70
0
3

72
65
40
0.
73
0
0
LTYPE
5
72e4a
100
AcDbSymbolTableRecord
100
AcDbLinetypeTableRecord
2
0_18_-_Pontsor
70
0
3

72
65
40
0.
73
0
0
LTYPE
5
72e4b
100
AcDbSymbolTableRecord
100
AcDbLinetypeTableRecord
2
0_18_-_Szagatott__1_5-0_5_
70
0
3

72
65
40
0.
73
0
0
LTYPE
5
72e4c
100
AcDbSymbolTableRecord
100
AcDbLinetypeTableRecord
2
0_18_-_Szagatott__2-1_
70
0
3

72
65
40
0.
73
0
0
LTYPE
5
72e4d
100
AcDbSymbolTableRecord
100
AcDbLinetypeTableRecord
2
0_18_-_Szagatott__2-1_5_
70
0
3

72
65
40
0.
73
0
0
LTYPE
5
72e4e
100
AcDbSymbolTableRecord
100
AcDbLinetypeTableRecord
2
0_18_-_Szagatott__3-1_
70
0
3

72
65
40
0.
73
0
0
LTYPE
5
72e4f
100
AcDbSymbolTableRecord
100
AcDbLinetypeTableRecord
2
0_18_-_Szagatott__4-1_
70
0
3

72
65
40
0.
73
0
0
LTYPE
5
72e50
100
AcDbSymbolTableRecord
100
AcDbLinetypeTableRecord
2
0_18_-_Szagatott__6-3_
70
0
3

72
65
40
0.
73
0
0
LTYPE
5
72e51
100
AcDbSymbolTableRecord
100
AcDbLinetypeTableRecord
2
0_18_-_Szagatott__10-2_
70
0
3

72
65
40
0.
73
0
0
LTYPE
5
72e52
100
AcDbSymbolTableRecord
100
AcDbLinetypeTableRecord
2
0_40_-_Folyamatos
70
0
3

72
65
40
0.
73
0
0
LTYPE
5
72e53
100
AcDbSymbolTableRecord
100
AcDbLinetypeTableRecord
2
Nagyfeszültségû_vezeték
70
0
3

72
65
40
0.
73
0
0
LTYPE
5
72e54
100
AcDbSymbolTableRecord
100
AcDbLinetypeTableRecord
2
Védett_fasor
70
0
3

72
65
40
0.
73
0
0
LTYPE
5
72e55
100
AcDbSymbolTableRecord
100
AcDbLinetypeTableRecord
2
Kerítés__drót_
70
0
3

72
65
40
0.
73
0
0
LTYPE
5
72e56
100
AcDbSymbolTableRecord
100
AcDbLinetypeTableRecord
2
Kerítés__fa_
70
0
3

72
65
40
0.
73
0
0
LTYPE
5
72e57
100
AcDbSymbolTableRecord
100
AcDbLinetypeTableRecord
2
Kerítés__sövény_
70
0
3

72
65
40
0.
73
0
0
LTYPE
5
72e58
100
AcDbSymbolTableRecord
100
AcDbLinetypeTableRecord
2
Kerítés__fonott_
70
0
3

72
65
40
0.
73
0
0
LTYPE
5
72e59
100
AcDbSymbolTableRecord
100
AcDbLinetypeTableRecord
2
Méret_nyilakkal
70
0
3

72
65
40
0.
73
0
0
LTYPE
5
72e5a
100
AcDbSymbolTableRecord
100
AcDbLinetypeTableRecord
2
0_30_-_Folyamatos
70
0
3

72
65
40
0.
73
0
0
LTYPE
5
72e5b
100
AcDbSymbolTableRecord
100
AcDbLinetypeTableRecord
2
0_50_-_Folyamatos
70
0
3

72
65
40
0.
73
0
0
LTYPE
5
72e5c
100
AcDbSymbolTableRecord
100
AcDbLinetypeTableRecord
2
0_30_-_Pontsor
70
0
3

72
65
40
0.
73
0
0
LTYPE
5
72e5d
100
AcDbSymbolTableRecord
100
AcDbLinetypeTableRecord
2
0_30_-_Szaggatott__3-1_
70
0
3

72
65
40
0.
73
0
0
LTYPE
5
72e5e
100
AcDbSymbolTableRecord
100
AcDbLinetypeTableRecord
2
-
70
0
3

72
65
40
0.
73
0
0
ENDTAB
0
TABLE
2
LAYER
5
72e5f
100
AcDbSymbolTable
70
39
0
LAYER
5
72e60
100
AcDbSymbolTableRecord
100
AcDbLayerTableRecord
2
0
6
Continuous
62
1
70
0
390
F
0
LAYER
5
72e61
100
AcDbSymbolTableRecord
100
AcDbLayerTableRecord
2
V_ALAPPONT
6
0_16_-_Folyamatos
62
1
70
0
390
F
0
LAYER
5
72e62
100
AcDbSymbolTableRecord
100
AcDbLayerTableRecord
2
M_ALAPPONT
6
0_16_-_Folyamatos
62
2
70
0
390
F
0
LAYER
5
72e63
100
AcDbSymbolTableRecord
100
AcDbLayerTableRecord
2
GR_ALAPPONT
6
0_16_-_Folyamatos
62
3
70
0
390
F
0
LAYER
5
72e64
100
AcDbSymbolTableRecord
100
AcDbLayerTableRecord
2
ITR-4-ALLAMHATAR
6
0_18_-_Folyamatos_
62
4
70
0
390
F
0
LAYER
5
72e65
100
AcDbSymbolTableRecord
100
AcDbLayerTableRecord
2
ITR-5-MEGYEHATAR
6
0_18_-_Folyamatos_
62
5
70
0
390
F
0
LAYER
5
72e66
100
AcDbSymbolTableRecord
100
AcDbLayerTableRecord
2
ITR-6-TELEPULESHAT
6
0_18_-_Folyamatos_
62
6
70
0
390
F
0
LAYER
5
72e67
100
AcDbSymbolTableRecord
100
AcDbLayerTableRecord
2
ITR-7-FEKVESHATAR
6
0_18_-_Folyamatos_
62
7
70
0
390
F
0
LAYER
5
72e68
100
AcDbSymbolTableRecord
100
AcDbLayerTableRecord
2
ITR-8-KERULETHATAR
6
0_18_-_Folyamatos_
62
8
70
0
390
F
0
LAYER
5
72e69
100
AcDbSymbolTableRecord
100
AcDbLayerTableRecord
2
ITR-9-TOMBHATAR
6
0_30_-_Folyamatos
62
9
70
0
390
F
0
LAYER
5
72e6a
100
AcDbSymbolTableRecord
100
AcDbLayerTableRecord
2
ITR-10-FRL_HATAR
6
0_18_-_Folyamatos_
62
10
70
0
390
F
0
LAYER
5
72e6b
100
AcDbSymbolTableRecord
100
AcDbLayerTableRecord
2
ITR-11-HRSZ
6
0_16_-_Folyamatos
62
11
70
0
390
F
0
LAYER
5
72e6c
100
AcDbSymbolTableRecord
100
AcDbLayerTableRecord
2
ITR-12-ALR_HATAR
6
0_18_-_Pontsor
62
12
70
0
390
F
0
LAYER
5
72e6d
100
AcDbSymbolTableRecord
100
AcDbLayerTableRecord
2
ITR-13-ALR_JEL
6
0_16_-_Folyamatos
62
13
70
0
390
F
0
LAYER
5
72e6e
100
AcDbSymbolTableRecord
100
AcDbLayerTableRecord
2
ITR-14-ALR_MUV_AG
6
0_16_-_Folyamatos
62
14
70
0
390
F
0
LAYER
5
72e6f
100
AcDbSymbolTableRecord
100
AcDbLayerTableRecord
2
ITR-15-MIN_OSZT
6
0_18_-_Szagatott__3-1_
62
15
70
0
390
F
0
LAYER
5
72e70
100
AcDbSymbolTableRecord
100
AcDbLayerTableRecord
2
SZA_ALR
6
0_18_-_Pontsor
62
16
70
0
390
F
0
LAYER
5
72e71
100
AcDbSymbolTableRecord
100
AcDbLayerTableRecord
2
SZA_MIN_OSZT_
6
0_18_-_Szagatott__3-1_
62
17
70
0
390
F
0
LAYER
5
72e72
100
AcDbSymbolTableRecord
100
AcDbLayerTableRecord
2
ZARADEK_ISZ
6
0_16_-_Folyamatos
62
26
70
0
390
F
0
LAYER
5
72e73
100
AcDbSymbolTableRecord
100
AcDbLayerTableRecord
2
ITR-30-LAKOEPULET
6
0_18_-_Folyamatos_
62
30
70
0
390
F
0
LAYER
5
72e74
100
AcDbSymbolTableRecord
100
AcDbLayerTableRecord
2
ITR-31-GAZD_EPULET
6
0_18_-_Folyamatos_
62
31
70
0
390
F
0
LAYER
5
72e75
100
AcDbSymbolTableRecord
100
AcDbLayerTableRecord
2
ITR-32-KOZEPULET
6
0_18_-_Folyamatos_
62
32
70
0
390
F
0
LAYER
5
72e76
100
AcDbSymbolTableRecord
100
AcDbLayerTableRecord
2
ITR-33-TEMPLOM
6
0_18_-_Folyamatos_
62
33
70
0
390
F
0
LAYER
5
72e77
100
AcDbSymbolTableRecord
100
AcDbLayerTableRecord
2
ITR-34-UZEMI_EPULET
6
0_18_-_Folyamatos_
62
34
70
0
390
F
0
LAYER
5
72e78
100
AcDbSymbolTableRecord
100
AcDbLayerTableRecord
2
ITR-35-HAZSZAM
6
0_16_-_Folyamatos
62
35
70
0
390
F
0
LAYER
5
72e79
100
AcDbSymbolTableRecord
100
AcDbLayerTableRecord
2
OGPSH_PONT
6
0_16_-_Folyamatos
62
76
70
0
390
F
0
LAYER
5
72e7a
100
AcDbSymbolTableRecord
100
AcDbLayerTableRecord
2
KEREG_MOZ
6
0_16_-_Folyamatos
62
77
70
0
390
F
0
LAYER
5
72e7b
100
AcDbSymbolTableRecord
100
AcDbLayerTableRecord
2
TERM_HATAR
6
0_18_-_Szagatott__2-1_
62
81
70
0
390
F
0
LAYER
5
72e7d
100
AcDbSymbolTableRecord
100
AcDbLayerTableRecord
2
DULONEV
6
0_16_-_Folyamatos
62
86
70
0
390
F
0
LAYER
5
72e7e
100
AcDbSymbolTableRecord
100
AcDbLayerTableRecord
2
ITR-87-UDULOEPULET
6
0_18_-_Folyamatos_
62
87
70
0
390
F
0
LAYER
5
72e7f
100
AcDbSymbolTableRecord
100
AcDbLayerTableRecord
2
ITR-93-VEGYES_EP
6
0_18_-_Folyamatos_
62
93
70
0
390
F
0
LAYER
5
72e80
100
AcDbSymbolTableRecord
100
AcDbLayerTableRecord
2
ITR-94-REND.LEN_EP
6
0_18_-_Folyamatos_
62
94
70
0
390
F
0
LAYER
5
72e81
100
AcDbSymbolTableRecord
100
AcDbLayerTableRecord
2
D_FRL_HAT
6
0_18_-_Folyamatos_
62
150
70
0
390
F
0
LAYER
5
72e82
100
AcDbSymbolTableRecord
100
AcDbLayerTableRecord
2
D_HRSZ
6
0_16_-_Folyamatos
62
151
70
0
390
F
0
LAYER
5
72e83
100
AcDbSymbolTableRecord
100
AcDbLayerTableRecord
2
D_ALR_HATAR
6
0_18_-_Pontsor
62
152
70
0
390
F
0
LAYER
5
72e84
100
AcDbSymbolTableRecord
100
AcDbLayerTableRecord
2
D_ALR_JEL
6
0_16_-_Folyamatos
62
153
70
0
390
F
0
LAYER
5
72e85
100
AcDbSymbolTableRecord
100
AcDbLayerTableRecord
2
D_ALR_MUV_AG
6
0_16_-_Folyamatos
62
154
70
0
390
F
0
LAYER
5
72e86
100
AcDbSymbolTableRecord
100
AcDbLayerTableRecord
2
D_MIN_OSZT
6
0_18_-_Szagatott__3-1_
62
155
70
0
390
F
0
LAYER
5
72e87
100
AcDbSymbolTableRecord
100
AcDbLayerTableRecord
2
Error
6
0_16_-_Folyamatos
62
1
70
0
390
F
0
ENDTAB
0
TABLE
2
STYLE
5
72e88
100
AcDbSymbolTable
70
155
0
STYLE
5
72e89
100
AcDbSymbolTableRecord
100
AcDbTextStyleTableRecord
2
Egyéb
3
Arial CE
4

41
1
50
0
42
0.
40
3.
71
0
70
0
0
STYLE
5
72e8a
100
AcDbSymbolTableRecord
100
AcDbTextStyleTableRecord
2
Vízszintes_felsõ_és_IV-V___rendû_alappon
3
Arial CE
4

41
2
50
0
42
0.
40
5.
71
0
70
0
0
STYLE
5
72e8b
100
AcDbSymbolTableRecord
100
AcDbTextStyleTableRecord
2
Vízszintes_felmérési_alappont
3
Arial CE
4

41
2
50
0
42
0.
40
4.
71
0
70
0
0
STYLE
5
72e8c
100
AcDbSymbolTableRecord
100
AcDbTextStyleTableRecord
2
Magassági_fõalappont
3
Arial CE
4

41
2
50
0
42
0.
40
5.
71
0
70
0
0
STYLE
5
72e8d
100
AcDbSymbolTableRecord
100
AcDbTextStyleTableRecord
2
Kéregmozgási_alappont
3
Arial CE
4

41
2
50
0
42
0.
40
5.
71
0
70
0
0
STYLE
5
72e8e
100
AcDbSymbolTableRecord
100
AcDbTextStyleTableRecord
2
Magassági_I-IV__rendû_alappont
3
Arial CE
4

41
2
50
0
42
0.
40
4.
71
0
70
0
0
STYLE
5
72e8f
100
AcDbSymbolTableRecord
100
AcDbTextStyleTableRecord
2
Gravimetriai_alappont
3
Arial CE
4

41
2
50
0
42
0.
40
5.
71
0
70
0
0
STYLE
5
72e90
100
AcDbSymbolTableRecord
100
AcDbTextStyleTableRecord
2
GPS_alappont
3
Arial CE
4

41
2
50
0
42
0.
40
5.
71
0
70
0
0
STYLE
5
72e91
100
AcDbSymbolTableRecord
100
AcDbTextStyleTableRecord
2
Határpont__2_0-A_
3
Arial CE
4

41
2
50
0
42
0.
40
4.
71
0
70
0
0
STYLE
5
72e92
100
AcDbSymbolTableRecord
100
AcDbTextStyleTableRecord
2
Határpont__1_5-A_
3
Arial CE
4

41
1
50
0
42
0.
40
3.
71
0
70
0
0
STYLE
5
72e93
100
AcDbSymbolTableRecord
100
AcDbTextStyleTableRecord
2
Országnév
3
Arial CE
4

41
6
50
0
42
0.
40
14.
71
0
70
0
0
STYLE
5
72e94
100
AcDbSymbolTableRecord
100
AcDbTextStyleTableRecord
2
Megye_neve
3
Arial CE
4

41
3
50
0
42
0.
40
6.
71
0
70
0
0
STYLE
5
72e95
100
AcDbSymbolTableRecord
100
AcDbTextStyleTableRecord
2
Településnév
3
Arial CE
4

41
6
50
0
42
0.
40
14.
71
0
70
0
0
STYLE
5
72e96
100
AcDbSymbolTableRecord
100
AcDbTextStyleTableRecord
2
Fekvés_neve
3
Arial CE
4

41
3
50
0
42
0.
40
6.
71
0
70
0
0
STYLE
5
72e97
100
AcDbSymbolTableRecord
100
AcDbTextStyleTableRecord
2
Kerület_neve
3
Arial CE
4

41
4
50
0
42
0.
40
10.
71
0
70
0
0
STYLE
5
72e98
100
AcDbSymbolTableRecord
100
AcDbTextStyleTableRecord
2
Kerület_szám
3
Arial CE
4

41
6
50
0
42
0.
40
14.
71
0
70
0
0
STYLE
5
72e99
100
AcDbSymbolTableRecord
100
AcDbTextStyleTableRecord
2
Tömbszám
3
Arial CE
4

41
3
50
0
42
0.
40
6.
71
0
70
0
0
STYLE
5
72e9a
100
AcDbSymbolTableRecord
100
AcDbTextStyleTableRecord
2
Helyrajzi_szám
3
Arial CE
4

41
2
50
0
42
0.
40
4.
71
0
70
0
0
STYLE
5
72e9b
100
AcDbSymbolTableRecord
100
AcDbTextStyleTableRecord
2
Alrészlet_betûjele
3
Arial CE
4

41
2
50
0
42
0.
40
4.
71
0
70
0
0
STYLE
5
72e9c
100
AcDbSymbolTableRecord
100
AcDbTextStyleTableRecord
2
Alrészlet_mûvelési_ága
3
Arial CE
4

41
1
50
0
42
0.
40
3.
71
0
70
0
0
STYLE
5
72e9d
100
AcDbSymbolTableRecord
100
AcDbTextStyleTableRecord
2
Minõségi_osztály
3
Arial CE
4

41
1
50
0
42
0.
40
3.
71
0
70
0
0
STYLE
5
72e9e
100
AcDbSymbolTableRecord
100
AcDbTextStyleTableRecord
2
Záradékolás_iktatószáma
3
Arial CE
4

41
2
50
0
42
0.
40
5.
71
0
70
0
0
STYLE
5
72e9f
100
AcDbSymbolTableRecord
100
AcDbTextStyleTableRecord
2
Természetvédelmi_terület_neve_
3
Arial CE
4

41
3
50
0
42
0.
40
6.
71
0
70
0
0
STYLE
5
72ea0
100
AcDbSymbolTableRecord
100
AcDbTextStyleTableRecord
2
Védett_fasor
3
Arial CE
4

41
2
50
0
42
0.
40
4.
71
0
70
0
0
STYLE
5
72ea1
100
AcDbSymbolTableRecord
100
AcDbTextStyleTableRecord
2
Bánya_neve
3
Arial CE
4

41
3
50
0
42
0.
40
6.
71
0
70
0
0
STYLE
5
72ea2
100
AcDbSymbolTableRecord
100
AcDbTextStyleTableRecord
2
Akna_neve
3
Arial CE
4

41
2
50
0
42
0.
40
4.
71
0
70
0
0
STYLE
5
72ea3
100
AcDbSymbolTableRecord
100
AcDbTextStyleTableRecord
2
Vizek_védõterületének_neve
3
Arial CE
4

41
3
50
0
42
0.
40
6.
71
0
70
0
0
STYLE
5
72ea4
100
AcDbSymbolTableRecord
100
AcDbTextStyleTableRecord
2
Gazdasági_épület
3
Arial CE
4

41
2
50
0
42
0.
40
4.
71
0
70
0
0
STYLE
5
72ea5
100
AcDbSymbolTableRecord
100
AcDbTextStyleTableRecord
2
Középület
3
Arial CE
4

41
2
50
0
42
0.
40
4.
71
0
70
0
0
STYLE
5
72ea6
100
AcDbSymbolTableRecord
100
AcDbTextStyleTableRecord
2
Templom
3
Arial CE
4

41
2
50
0
42
0.
40
4.
71
0
70
0
0
STYLE
5
72ea7
100
AcDbSymbolTableRecord
100
AcDbTextStyleTableRecord
2
Uzemi_épület
3
Arial CE
4

41
2
50
0
42
0.
40
4.
71
0
70
0
0
STYLE
5
72ea8
100
AcDbSymbolTableRecord
100
AcDbTextStyleTableRecord
2
Házszám
3
Arial CE
4

41
2
50
0
42
0.
40
4.
71
0
70
0
0
STYLE
5
72ea9
100
AcDbSymbolTableRecord
100
AcDbTextStyleTableRecord
2
Epület_tartozék
3
Arial CE
4

41
1
50
0
42
0.
40
3.
71
0
70
0
0
STYLE
5
72eaa
100
AcDbSymbolTableRecord
100
AcDbTextStyleTableRecord
2
Vetített_sík
3
Arial CE
4

41
2
50
0
42
0.
40
4.
71
0
70
0
0
STYLE
5
72eab
100
AcDbSymbolTableRecord
100
AcDbTextStyleTableRecord
2
Torony_épület
3
Arial CE
4

41
2
50
0
42
0.
40
4.
71
0
70
0
0
STYLE
5
72eac
100
AcDbSymbolTableRecord
100
AcDbTextStyleTableRecord
2
Támfal
3
Arial CE
4

41
2
50
0
42
0.
40
4.
71
0
70
0
0
STYLE
5
72ead
100
AcDbSymbolTableRecord
100
AcDbTextStyleTableRecord
2
Töltés
3
Arial CE
4

41
1
50
0
42
0.
40
3.
71
0
70
0
0
STYLE
5
72eae
100
AcDbSymbolTableRecord
100
AcDbTextStyleTableRecord
2
Rom
3
Arial CE
4

41
2
50
0
42
0.
40
4.
71
0
70
0
0
STYLE
5
72eaf
100
AcDbSymbolTableRecord
100
AcDbTextStyleTableRecord
2
Utcanév
3
Arial CE
4

41
3
50
0
42
0.
40
6.
71
0
70
0
0
STYLE
5
72eb0
100
AcDbSymbolTableRecord
100
AcDbTextStyleTableRecord
2
Lépcsõ_közterületen
3
Arial CE
4

41
1
50
0
42
0.
40
3.
71
0
70
0
0
STYLE
5
72eb1
100
AcDbSymbolTableRecord
100
AcDbTextStyleTableRecord
2
Burkolat
3
Arial CE
4

41
2
50
0
42
0.
40
4.
71
0
70
0
0
STYLE
5
72eb2
100
AcDbSymbolTableRecord
100
AcDbTextStyleTableRecord
2
Autóút
3
Arial CE
4

41
2
50
0
42
0.
40
4.
71
0
70
0
0
STYLE
5
72eb3
100
AcDbSymbolTableRecord
100
AcDbTextStyleTableRecord
2
Mellékút
3
Arial CE
4

41
2
50
0
42
0.
40
4.
71
0
70
0
0
STYLE
5
72eb4
100
AcDbSymbolTableRecord
100
AcDbTextStyleTableRecord
2
Vasút
3
Arial CE
4

41
2
50
0
42
0.
40
4.
71
0
70
0
0
STYLE
5
72eb5
100
AcDbSymbolTableRecord
100
AcDbTextStyleTableRecord
2
Híd_neve
3
Arial CE
4

41
3
50
0
42
0.
40
6.
71
0
70
0
0
STYLE
5
72eb6
100
AcDbSymbolTableRecord
100
AcDbTextStyleTableRecord
2
Folyó__tó_neve
3
Arial CE
4

41
3
50
0
42
0.
40
6.
71
0
70
0
0
STYLE
5
72eb7
100
AcDbSymbolTableRecord
100
AcDbTextStyleTableRecord
2
Patak__csatorna_neve
3
Arial CE
4

41
2
50
0
42
0.
40
4.
71
0
70
0
0
STYLE
5
72eb8
100
AcDbSymbolTableRecord
100
AcDbTextStyleTableRecord
2
Vízmûtárgy
3
Arial CE
4

41
2
50
0
42
0.
40
4.
71
0
70
0
0
STYLE
5
72eb9
100
AcDbSymbolTableRecord
100
AcDbTextStyleTableRecord
2
Drótkötél
3
Arial CE
4

41
2
50
0
42
0.
40
4.
71
0
70
0
0
STYLE
5
72eba
100
AcDbSymbolTableRecord
100
AcDbTextStyleTableRecord
2
Távhõ_vezeték
3
Arial CE
4

41
2
50
0
42
0.
40
4.
71
0
70
0
0
STYLE
5
72ebb
100
AcDbSymbolTableRecord
100
AcDbTextStyleTableRecord
2
Olaj_felszíni
3
Arial CE
4

41
2
50
0
42
0.
40
4.
71
0
70
0
0
STYLE
5
72ebc
100
AcDbSymbolTableRecord
100
AcDbTextStyleTableRecord
2
Egyéb_felszíni_vezeték
3
Arial CE
4

41
2
50
0
42
0.
40
4.
71
0
70
0
0
STYLE
5
72ebd
100
AcDbSymbolTableRecord
100
AcDbTextStyleTableRecord
2
Vezeték_biztonsági_övezete
3
Arial CE
4

41
1
50
0
42
0.
40
3.
71
0
70
0
0
STYLE
5
72ebe
100
AcDbSymbolTableRecord
100
AcDbTextStyleTableRecord
2
Uzemanyag_töltõállomás
3
Arial CE
4

41
1
50
0
42
0.
40
3.
71
0
70
0
0
STYLE
5
72ebf
100
AcDbSymbolTableRecord
100
AcDbTextStyleTableRecord
2
Vegyes_épület
3
Arial CE
4

41
2
50
0
42
0.
40
4.
71
0
70
0
0
STYLE
5
72ec0
100
AcDbSymbolTableRecord
100
AcDbTextStyleTableRecord
2
Rendezetlen_épület
3
Arial CE
4

41
2
50
0
42
0.
40
4.
71
0
70
0
0
STYLE
5
72ec1
100
AcDbSymbolTableRecord
100
AcDbTextStyleTableRecord
2
Arok_bt
3
Arial CE
4

41
1
50
0
42
0.
40
3.
71
0
70
0
0
STYLE
5
72ec2
100
AcDbSymbolTableRecord
100
AcDbTextStyleTableRecord
2
Autóút_padka
3
Arial CE
4

41
2
50
0
42
0.
40
4.
71
0
70
0
0
STYLE
5
72ec3
100
AcDbSymbolTableRecord
100
AcDbTextStyleTableRecord
2
Egyéb_út
3
Arial CE
4

41
2
50
0
42
0.
40
4.
71
0
70
0
0
STYLE
5
72ec4
100
AcDbSymbolTableRecord
100
AcDbTextStyleTableRecord
2
Villamos
3
Arial CE
4

41
2
50
0
42
0.
40
4.
71
0
70
0
0
STYLE
5
72ec5
100
AcDbSymbolTableRecord
100
AcDbTextStyleTableRecord
2
Ipari_vasút
3
Arial CE
4

41
2
50
0
42
0.
40
4.
71
0
70
0
0
STYLE
5
72ec6
100
AcDbSymbolTableRecord
100
AcDbTextStyleTableRecord
2
Egyéb_vasút
3
Arial CE
4

41
1
50
0
42
0.
40
3.
71
0
70
0
0
STYLE
5
72ec7
100
AcDbSymbolTableRecord
100
AcDbTextStyleTableRecord
2
Felüljáró
3
Arial CE
4

41
1
50
0
42
0.
40
3.
71
0
70
0
0
STYLE
5
72ec8
100
AcDbSymbolTableRecord
100
AcDbTextStyleTableRecord
2
Dûlõút
3
Arial CE
4

41
2
50
0
42
0.
40
4.
71
0
70
0
0
STYLE
5
72ec9
100
AcDbSymbolTableRecord
100
AcDbTextStyleTableRecord
2
Arok_kt
3
Arial CE
4

41
1
50
0
42
0.
40
3.
71
0
70
0
0
STYLE
5
72eca
100
AcDbSymbolTableRecord
100
AcDbTextStyleTableRecord
2
Alagút
3
Arial CE
4

41
1
50
0
42
0.
40
3.
71
0
70
0
0
STYLE
5
72ecb
100
AcDbSymbolTableRecord
100
AcDbTextStyleTableRecord
2
Függõpálya
3
Arial CE
4

41
2
50
0
42
0.
40
4.
71
0
70
0
0
STYLE
5
72ecc
100
AcDbSymbolTableRecord
100
AcDbTextStyleTableRecord
2
Egyéb_felszín_alatti_vezeték
3
Arial CE
4

41
2
50
0
42
0.
40
4.
71
0
70
0
0
STYLE
5
72ecd
100
AcDbSymbolTableRecord
100
AcDbTextStyleTableRecord
2
Szélmotor__dögkút__sír
3
Arial CE
4

41
2
50
0
42
0.
40
4.
71
0
70
0
0
STYLE
5
72ece
100
AcDbSymbolTableRecord
100
AcDbTextStyleTableRecord
2
Teljes_hrsz
3
Arial CE
4

41
1
50
0
42
0.
40
3.
71
0
70
0
0
STYLE
5
72ecf
100
AcDbSymbolTableRecord
100
AcDbTextStyleTableRecord
2
Dûlõnév
3
Arial CE
4

41
3
50
0
42
0.
40
6.
71
0
70
0
0
STYLE
5
72ed0
100
AcDbSymbolTableRecord
100
AcDbTextStyleTableRecord
2
Hibaszám
3
Arial CE
4

41
9
50
0
42
0.
40
20.
71
0
70
0
0
STYLE
5
72ed1
100
AcDbSymbolTableRecord
100
AcDbTextStyleTableRecord
2
Szelvényszám_1000
3
Arial CE
4

41
6
50
0
42
0.
40
14.
71
0
70
0
0
STYLE
5
72ed2
100
AcDbSymbolTableRecord
100
AcDbTextStyleTableRecord
2
Vázrajz_méret
3
Arial CE
4

41
1
50
0
42
0.
40
3.
71
0
70
0
0
STYLE
5
72ed3
100
AcDbSymbolTableRecord
100
AcDbTextStyleTableRecord
2
Részletpont_száma
3
Arial CE
4

41
1
50
0
42
0.
40
3.
71
0
70
0
0
STYLE
5
72ed4
100
AcDbSymbolTableRecord
100
AcDbTextStyleTableRecord
2
Térképi_méret
3
Arial CE
4

41
1
50
0
42
0.
40
3.
71
0
70
0
0
STYLE
5
72ed5
100
AcDbSymbolTableRecord
100
AcDbTextStyleTableRecord
2
Eredeti_mérési_eredmény
3
Arial CE
4

41
1
50
0
42
0.
40
3.
71
0
70
0
0
STYLE
5
72ed6
100
AcDbSymbolTableRecord
100
AcDbTextStyleTableRecord
2
Helyszíni_méret
3
Arial CE
4

41
1
50
0
42
0.
40
3.
71
0
70
0
0
STYLE
5
72ed7
100
AcDbSymbolTableRecord
100
AcDbTextStyleTableRecord
2
Kitûzési_méret
3
Arial CE
4

41
1
50
0
42
0.
40
3.
71
0
70
0
0
STYLE
5
72ed8
100
AcDbSymbolTableRecord
100
AcDbTextStyleTableRecord
2
Elõzetes_hrsz
3
Arial CE
4

41
2
50
0
42
0.
40
4.
71
0
70
0
0
STYLE
5
72ed9
100
AcDbSymbolTableRecord
100
AcDbTextStyleTableRecord
2
Változás_elõtt_hrsz
3
Arial CE
4

41
2
50
0
42
0.
40
4.
71
0
70
0
0
STYLE
5
72eda
100
AcDbSymbolTableRecord
100
AcDbTextStyleTableRecord
2
Változás_után_hrsz
3
Arial CE
4

41
2
50
0
42
0.
40
4.
71
0
70
0
0
STYLE
5
72edb
100
AcDbSymbolTableRecord
100
AcDbTextStyleTableRecord
2
D_hrsz
3
Arial CE
4

41
2
50
0
42
0.
40
4.
71
0
70
0
0
STYLE
5
72edc
100
AcDbSymbolTableRecord
100
AcDbTextStyleTableRecord
2
Megszünt_hrsz
3
Arial CE
4

41
2
50
0
42
0.
40
4.
71
0
70
0
0
STYLE
5
72edd
100
AcDbSymbolTableRecord
100
AcDbTextStyleTableRecord
2
Vált_alr_jele
3
Arial CE
4

41
2
50
0
42
0.
40
4.
71
0
70
0
0
STYLE
5
72ede
100
AcDbSymbolTableRecord
100
AcDbTextStyleTableRecord
2
Vált_e_alr_jele
3
Arial CE
4

41
2
50
0
42
0.
40
4.
71
0
70
0
0
STYLE
5
72edf
100
AcDbSymbolTableRecord
100
AcDbTextStyleTableRecord
2
Vált_u_alr_jele
3
Arial CE
4

41
2
50
0
42
0.
40
4.
71
0
70
0
0
STYLE
5
72ee0
100
AcDbSymbolTableRecord
100
AcDbTextStyleTableRecord
2
D_alr_jele
3
Arial CE
4

41
2
50
0
42
0.
40
4.
71
0
70
0
0
STYLE
5
72ee1
100
AcDbSymbolTableRecord
100
AcDbTextStyleTableRecord
2
Megszünt_alr_jele
3
Arial CE
4

41
2
50
0
42
0.
40
4.
71
0
70
0
0
STYLE
5
72ee2
100
AcDbSymbolTableRecord
100
AcDbTextStyleTableRecord
2
Sza_alr_mûvág
3
Arial CE
4

41
1
50
0
42
0.
40
3.
71
0
70
0
0
STYLE
5
72ee3
100
AcDbSymbolTableRecord
100
AcDbTextStyleTableRecord
2
Vált_alr_mûvág
3
Arial CE
4

41
1
50
0
42
0.
40
3.
71
0
70
0
0
STYLE
5
72ee4
100
AcDbSymbolTableRecord
100
AcDbTextStyleTableRecord
2
Elõ_sza_alr_mûvág
3
Arial CE
4

41
1
50
0
42
0.
40
3.
71
0
70
0
0
STYLE
5
72ee5
100
AcDbSymbolTableRecord
100
AcDbTextStyleTableRecord
2
Ve_alr_mûvág
3
Arial CE
4

41
1
50
0
42
0.
40
3.
71
0
70
0
0
STYLE
5
72ee6
100
AcDbSymbolTableRecord
100
AcDbTextStyleTableRecord
2
Ve_sza_alr_mûvág
3
Arial CE
4

41
1
50
0
42
0.
40
3.
71
0
70
0
0
STYLE
5
72ee7
100
AcDbSymbolTableRecord
100
AcDbTextStyleTableRecord
2
Vu_alr_mûvág
3
Arial CE
4

41
1
50
0
42
0.
40
3.
71
0
70
0
0
STYLE
5
72ee8
100
AcDbSymbolTableRecord
100
AcDbTextStyleTableRecord
2
Vu_sza_alr_mûvág
3
Arial CE
4

41
1
50
0
42
0.
40
3.
71
0
70
0
0
STYLE
5
72ee9
100
AcDbSymbolTableRecord
100
AcDbTextStyleTableRecord
2
D_alr_mûvág
3
Arial CE
4

41
1
50
0
42
0.
40
3.
71
0
70
0
0
STYLE
5
72eea
100
AcDbSymbolTableRecord
100
AcDbTextStyleTableRecord
2
Msz_alr_mûvág
3
Arial CE
4

41
1
50
0
42
0.
40
3.
71
0
70
0
0
STYLE
5
72eeb
100
AcDbSymbolTableRecord
100
AcDbTextStyleTableRecord
2
Msz_sza_alr_mûvág
3
Arial CE
4

41
1
50
0
42
0.
40
3.
71
0
70
0
0
STYLE
5
72eec
100
AcDbSymbolTableRecord
100
AcDbTextStyleTableRecord
2
Sza_min_oszt
3
Arial CE
4

41
1
50
0
42
0.
40
3.
71
0
70
0
0
STYLE
5
72eed
100
AcDbSymbolTableRecord
100
AcDbTextStyleTableRecord
2
Elõ_min_oszt
3
Arial CE
4

41
1
50
0
42
0.
40
3.
71
0
70
0
0
STYLE
5
72eee
100
AcDbSymbolTableRecord
100
AcDbTextStyleTableRecord
2
Elõ_sza_min_oszt
3
Arial CE
4

41
1
50
0
42
0.
40
3.
71
0
70
0
0
STYLE
5
72eef
100
AcDbSymbolTableRecord
100
AcDbTextStyleTableRecord
2
Ve_min_oszt
3
Arial CE
4

41
1
50
0
42
0.
40
3.
71
0
70
0
0
STYLE
5
72ef0
100
AcDbSymbolTableRecord
100
AcDbTextStyleTableRecord
2
Ve_sza_min_oszt
3
Arial CE
4

41
1
50
0
42
0.
40
3.
71
0
70
0
0
STYLE
5
72ef1
100
AcDbSymbolTableRecord
100
AcDbTextStyleTableRecord
2
Vu_min_oszt
3
Arial CE
4

41
1
50
0
42
0.
40
3.
71
0
70
0
0
STYLE
5
72ef2
100
AcDbSymbolTableRecord
100
AcDbTextStyleTableRecord
2
Vu_sza_min_oszt
3
Arial CE
4

41
1
50
0
42
0.
40
3.
71
0
70
0
0
STYLE
5
72ef3
100
AcDbSymbolTableRecord
100
AcDbTextStyleTableRecord
2
Msz_min_oszt
3
Arial CE
4

41
1
50
0
42
0.
40
3.
71
0
70
0
0
STYLE
5
72ef4
100
AcDbSymbolTableRecord
100
AcDbTextStyleTableRecord
2
Msz_sza_min_oszt
3
Arial CE
4

41
1
50
0
42
0.
40
3.
71
0
70
0
0
STYLE
5
72ef5
100
AcDbSymbolTableRecord
100
AcDbTextStyleTableRecord
2
Uj_gazd_ép
3
Arial CE
4

41
2
50
0
42
0.
40
4.
71
0
70
0
0
STYLE
5
72ef6
100
AcDbSymbolTableRecord
100
AcDbTextStyleTableRecord
2
Msz_gazd_ép
3
Arial CE
4

41
2
50
0
42
0.
40
4.
71
0
70
0
0
STYLE
5
72ef7
100
AcDbSymbolTableRecord
100
AcDbTextStyleTableRecord
2
Uj_házszám
3
Arial CE
4

41
1
50
0
42
0.
40
3.
71
0
70
0
0
STYLE
5
72ef8
100
AcDbSymbolTableRecord
100
AcDbTextStyleTableRecord
2
Msz_házszám
3
Arial CE
4

41
1
50
0
42
0.
40
3.
71
0
70
0
0
STYLE
5
72ef9
100
AcDbSymbolTableRecord
100
AcDbTextStyleTableRecord
2
Uj_középület
3
Arial CE
4

41
2
50
0
42
0.
40
4.
71
0
70
0
0
STYLE
5
72efa
100
AcDbSymbolTableRecord
100
AcDbTextStyleTableRecord
2
Msz_középület
3
Arial CE
4

41
2
50
0
42
0.
40
4.
71
0
70
0
0
STYLE
5
72efb
100
AcDbSymbolTableRecord
100
AcDbTextStyleTableRecord
2
Mûút
3
Arial CE
4

41
2
50
0
42
0.
40
4.
71
0
70
0
0
STYLE
5
72efc
100
AcDbSymbolTableRecord
100
AcDbTextStyleTableRecord
2
Mûút_padka
3
Arial CE
4

41
2
50
0
42
0.
40
4.
71
0
70
0
0
STYLE
5
72efd
100
AcDbSymbolTableRecord
100
AcDbTextStyleTableRecord
2
Gáz_felszíni
3
Arial CE
4

41
2
50
0
42
0.
40
4.
71
0
70
0
0
STYLE
5
72efe
100
AcDbSymbolTableRecord
100
AcDbTextStyleTableRecord
2
Olaj_felszín_alatti
3
Arial CE
4

41
2
50
0
42
0.
40
4.
71
0
70
0
0
STYLE
5
72eff
100
AcDbSymbolTableRecord
100
AcDbTextStyleTableRecord
2
Gáz_felszín_alatti
3
Arial CE
4

41
2
50
0
42
0.
40
4.
71
0
70
0
0
STYLE
5
72f00
100
AcDbSymbolTableRecord
100
AcDbTextStyleTableRecord
2
Vízvezeték
3
Arial CE
4

41
2
50
0
42
0.
40
4.
71
0
70
0
0
STYLE
5
72f01
100
AcDbSymbolTableRecord
100
AcDbTextStyleTableRecord
2
Uj_rlen_ép
3
Arial CE
4

41
2
50
0
42
0.
40
4.
71
0
70
0
0
STYLE
5
72f02
100
AcDbSymbolTableRecord
100
AcDbTextStyleTableRecord
2
Msz_rend_ép
3
Arial CE
4

41
2
50
0
42
0.
40
4.
71
0
70
0
0
STYLE
5
72f03
100
AcDbSymbolTableRecord
100
AcDbTextStyleTableRecord
2
Szelvényszám_2000
3
Arial CE
4

41
6
50
0
42
0.
40
14.
71
0
70
0
0
STYLE
5
72f04
100
AcDbSymbolTableRecord
100
AcDbTextStyleTableRecord
2
Szelvényszám_4000
3
Arial CE
4

41
6
50
0
42
0.
40
14.
71
0
70
0
0
STYLE
5
72f05
100
AcDbSymbolTableRecord
100
AcDbTextStyleTableRecord
2
Szelvényszám_10000
3
Arial CE
4

41
6
50
0
42
0.
40
14.
71
0
70
0
0
STYLE
5
72f06
100
AcDbSymbolTableRecord
100
AcDbTextStyleTableRecord
2
Uj_templom
3
Arial CE
4

41
2
50
0
42
0.
40
4.
71
0
70
0
0
STYLE
5
72f07
100
AcDbSymbolTableRecord
100
AcDbTextStyleTableRecord
2
Msz_templom
3
Arial CE
4

41
2
50
0
42
0.
40
4.
71
0
70
0
0
STYLE
5
72f08
100
AcDbSymbolTableRecord
100
AcDbTextStyleTableRecord
2
Uj_üzemi_ép
3
Arial CE
4

41
2
50
0
42
0.
40
4.
71
0
70
0
0
STYLE
5
72f09
100
AcDbSymbolTableRecord
100
AcDbTextStyleTableRecord
2
Msz_üzemi_ép
3
Arial CE
4

41
2
50
0
42
0.
40
4.
71
0
70
0
0
STYLE
5
72f0a
100
AcDbSymbolTableRecord
100
AcDbTextStyleTableRecord
2
Uj_vegyes_ép
3
Arial CE
4

41
2
50
0
42
0.
40
4.
71
0
70
0
0
STYLE
5
72f0b
100
AcDbSymbolTableRecord
100
AcDbTextStyleTableRecord
2
Msz_vegyes_ép
3
Arial CE
4

41
2
50
0
42
0.
40
4.
71
0
70
0
0
STYLE
5
72f0c
100
AcDbSymbolTableRecord
100
AcDbTextStyleTableRecord
2
Víztorony
3
Arial CE
4

41
2
50
0
42
0.
40
4.
71
0
70
0
0
STYLE
5
72f0d
100
AcDbSymbolTableRecord
100
AcDbTextStyleTableRecord
2
Kút
3
Arial CE
4

41
2
50
0
42
0.
40
4.
71
0
70
0
0
STYLE
5
72f0e
100
AcDbSymbolTableRecord
100
AcDbTextStyleTableRecord
2
D_min_oszt
3
Arial CE
4

41
1
50
0
42
0.
40
3.
71
0
70
0
0
STYLE
5
72f0f
100
AcDbSymbolTableRecord
100
AcDbTextStyleTableRecord
2
Térképmásolat
3
Arial CE
4

41
2
50
0
42
0.
40
4.
71
0
70
0
0
STYLE
5
72f10
100
AcDbSymbolTableRecord
100
AcDbTextStyleTableRecord
2
Rendeltetés_kód
3
Arial CE
4

41
1
50
0
42
0.
40
3.
71
0
70
0
0
STYLE
5
72f11
100
AcDbSymbolTableRecord
100
AcDbTextStyleTableRecord
2
Töredék_hrsz
3
Arial CE
4

41
2
50
0
42
0.
40
4.
71
0
70
0
0
STYLE
5
72f12
100
AcDbSymbolTableRecord
100
AcDbTextStyleTableRecord
2
Ervénytelen_záradék
3
Arial CE
4

41
1
50
0
42
0.
40
3.
71
0
70
0
0
STYLE
5
72f13
100
AcDbSymbolTableRecord
100
AcDbTextStyleTableRecord
2
Fekvés-Bt
3
Arial CE
4

41
4
50
0
42
0.
40
10.
71
0
70
0
0
STYLE
5
72f14
100
AcDbSymbolTableRecord
100
AcDbTextStyleTableRecord
2
Helyrajzi_szám-Bt
3
Arial CE
4

41
2
50
0
42
0.
40
4.
71
0
70
0
0
STYLE
5
72f15
100
AcDbSymbolTableRecord
100
AcDbTextStyleTableRecord
2
Alrészlet_jele-Bt
3
Arial CE
4

41
2
50
0
42
0.
40
4.
71
0
70
0
0
STYLE
5
72f16
100
AcDbSymbolTableRecord
100
AcDbTextStyleTableRecord
2
Alrészlet_mûv_ág-Bt
3
Arial CE
4

41
2
50
0
42
0.
40
4.
71
0
70
0
0
STYLE
5
72f17
100
AcDbSymbolTableRecord
100
AcDbTextStyleTableRecord
2
Akna-Bt
3
Arial CE
4

41
2
50
0
42
0.
40
4.
71
0
70
0
0
STYLE
5
72f18
100
AcDbSymbolTableRecord
100
AcDbTextStyleTableRecord
2
Középület-Bt
3
Arial CE
4

41
2
50
0
42
0.
40
4.
71
0
70
0
0
STYLE
5
72f19
100
AcDbSymbolTableRecord
100
AcDbTextStyleTableRecord
2
Uzemi_épület-Bt
3
Arial CE
4

41
2
50
0
42
0.
40
4.
71
0
70
0
0
STYLE
5
72f1a
100
AcDbSymbolTableRecord
100
AcDbTextStyleTableRecord
2
Házszám-Bt
3
Arial CE
4

41
1
50
0
42
0.
40
3.
71
0
70
0
0
STYLE
5
72f1b
100
AcDbSymbolTableRecord
100
AcDbTextStyleTableRecord
2
Támfal-Bt
3
Arial CE
4

41
2
50
0
42
0.
40
4.
71
0
70
0
0
STYLE
5
72f1c
100
AcDbSymbolTableRecord
100
AcDbTextStyleTableRecord
2
Rom-Bt
3
Arial CE
4

41
2
50
0
42
0.
40
4.
71
0
70
0
0
STYLE
5
72f1d
100
AcDbSymbolTableRecord
100
AcDbTextStyleTableRecord
2
Utcanév-Bt
3
Arial CE
4

41
2
50
0
42
0.
40
4.
71
0
70
0
0
STYLE
5
72f1e
100
AcDbSymbolTableRecord
100
AcDbTextStyleTableRecord
2
Közt_lépcsõ-Bt
3
Arial CE
4

41
2
50
0
42
0.
40
4.
71
0
70
0
0
STYLE
5
72f1f
100
AcDbSymbolTableRecord
100
AcDbTextStyleTableRecord
2
Autóút_széle-Bt
3
Arial CE
4

41
2
50
0
42
0.
40
4.
71
0
70
0
0
STYLE
5
72f20
100
AcDbSymbolTableRecord
100
AcDbTextStyleTableRecord
2
Mellékút-Bt
3
Arial CE
4

41
2
50
0
42
0.
40
4.
71
0
70
0
0
STYLE
5
72f21
100
AcDbSymbolTableRecord
100
AcDbTextStyleTableRecord
2
Vasút-Bt
3
Arial CE
4

41
2
50
0
42
0.
40
4.
71
0
70
0
0
STYLE
5
72f22
100
AcDbSymbolTableRecord
100
AcDbTextStyleTableRecord
2
ItrW_DAT1_M2
3
ItrW_DAT1_M2
4

41
0
50
0
42
0.
40
5.
71
0
70
0
0
STYLE
5
72f23
100
AcDbSymbolTableRecord
100
AcDbTextStyleTableRecord
2
Arial
3
Arial
4

41
0
50
0
42
0.
40
3.
71
0
70
0
0
ENDTAB
0
TABLE
2
VIEW
5
72f24
100
AcDbSymbolTable
70
0
0
ENDTAB
0
TABLE
2
UCS
5
72f25
100
AcDbSymbolTable
70
0
0
ENDTAB
0
TABLE
2
APPID
5
72f26
100
AcDbSymbolTable
70
1
0
APPID
5
72f27
100
AcDbSymbolTableRecord
100
AcDbRegAppTableRecord
2
ACAD
70
0
0
ENDTAB
0
TABLE
2
DIMSTYLE
5
72f28
100
AcDbSymbolTable
70
1
100
AcDbDimStyleTable
0
DIMSTYLE
105
72f29
100
AcDbSymbolTableRecord
100
AcDbDimStyleTableRecord
2
STANDARD
70
0
3

4

5

6

7

40
1.0
41
0.18
42
0.0625
43
0.38
44
0.18
45
0.0
46
0.0
47
0.0
48
0.0
140
0.1
141
0.09
142
0.0
143
25.4
144
1.0
145
0.0
146
1.0
147
0.09
71
0
72
0
73
1
74
1
75
0
76
0
77
0
78
0
170
0
171
2
172
0
173
0
174
0
175
0
176
0
177
0
178
0
270
2
271
4
272
4
273
2
274
2
275
0
340
72f28
280
0
281
0
282
0
283
1
284
0
285
0
286
0
287
3
288
0
0
ENDTAB
0
TABLE
2
BLOCK_RECORD
5
72f2a
100
AcDbSymbolTable
70
138
0
BLOCK_RECORD
5
72f2b
100
AcDbSymbolTableRecord
100
AcDbBlockTableRecord
2
*MODEL_SPACE
0
BLOCK_RECORD
5
72f2c
100
AcDbSymbolTableRecord
100
AcDbBlockTableRecord
2
*PAPER_SPACE
0
BLOCK_RECORD
5
72f2d
100
AcDbSymbolTableRecord
100
AcDbBlockTableRecord
2
GPS_Alappont
0
BLOCK_RECORD
5
72f2e
100
AcDbSymbolTableRecord
100
AcDbBlockTableRecord
2
Felsõ_és_IV__rendû_alappont
0
BLOCK_RECORD
5
72f2f
100
AcDbSymbolTableRecord
100
AcDbBlockTableRecord
2
Alappont_mérõtorony
0
BLOCK_RECORD
5
72f30
100
AcDbSymbolTableRecord
100
AcDbBlockTableRecord
2
Alappont_halmon
0
BLOCK_RECORD
5
72f31
100
AcDbSymbolTableRecord
100
AcDbBlockTableRecord
2
Alappont_gyárkémény
0
BLOCK_RECORD
5
72f32
100
AcDbSymbolTableRecord
100
AcDbBlockTableRecord
2
Alappont_víztorony
0
BLOCK_RECORD
5
72f33
100
AcDbSymbolTableRecord
100
AcDbBlockTableRecord
2
Alappont_templomtorony
0
BLOCK_RECORD
5
72f34
100
AcDbSymbolTableRecord
100
AcDbBlockTableRecord
2
Alappont_magaspont
0
BLOCK_RECORD
5
72f35
100
AcDbSymbolTableRecord
100
AcDbBlockTableRecord
2
Alappont_ha_a_jele_zavar
0
BLOCK_RECORD
5
72f36
100
AcDbSymbolTableRecord
100
AcDbBlockTableRecord
2
Otödrendû_alappont
0
BLOCK_RECORD
5
72f37
100
AcDbSymbolTableRecord
100
AcDbBlockTableRecord
2
Otödrendû_ap___gyárkémény
0
BLOCK_RECORD
5
72f38
100
AcDbSymbolTableRecord
100
AcDbBlockTableRecord
2
Otödrendû_ap__víztorony
0
BLOCK_RECORD
5
72f39
100
AcDbSymbolTableRecord
100
AcDbBlockTableRecord
2
Otödrendû_ap__magaspont
0
BLOCK_RECORD
5
72f3a
100
AcDbSymbolTableRecord
100
AcDbBlockTableRecord
2
Otödrendû_ap__templomtorony
0
BLOCK_RECORD
5
72f3b
100
AcDbSymbolTableRecord
100
AcDbBlockTableRecord
2
Otödrendû_ap__halmon
0
BLOCK_RECORD
5
72f3c
100
AcDbSymbolTableRecord
100
AcDbBlockTableRecord
2
Felmérési_ap__kõ
0
BLOCK_RECORD
5
72f3d
100
AcDbSymbolTableRecord
100
AcDbBlockTableRecord
2
Felmérési_ap__halmon
0
BLOCK_RECORD
5
72f3e
100
AcDbSymbolTableRecord
100
AcDbBlockTableRecord
2
Felmérési_ap__gyárkémény
0
BLOCK_RECORD
5
72f3f
100
AcDbSymbolTableRecord
100
AcDbBlockTableRecord
2
Felmérési_ap__hidroglóbusz
0
BLOCK_RECORD
5
72f40
100
AcDbSymbolTableRecord
100
AcDbBlockTableRecord
2
Felmérési_ap__kereszt
0
BLOCK_RECORD
5
72f41
100
AcDbSymbolTableRecord
100
AcDbBlockTableRecord
2
Felmérési_ap__víztorony
0
BLOCK_RECORD
5
72f42
100
AcDbSymbolTableRecord
100
AcDbBlockTableRecord
2
Felmérési_ap__egyéb
0
BLOCK_RECORD
5
72f43
100
AcDbSymbolTableRecord
100
AcDbBlockTableRecord
2
Alappont_csak_a_föld_alatt
0
BLOCK_RECORD
5
72f44
100
AcDbSymbolTableRecord
100
AcDbBlockTableRecord
2
Alappont_gravimetriai
0
BLOCK_RECORD
5
72f45
100
AcDbSymbolTableRecord
100
AcDbBlockTableRecord
2
Magassági_fõalappont
0
BLOCK_RECORD
5
72f46
100
AcDbSymbolTableRecord
100
AcDbBlockTableRecord
2
Magassági_ap___I_-IV__rendû_
0
BLOCK_RECORD
5
72f47
100
AcDbSymbolTableRecord
100
AcDbBlockTableRecord
2
Templom_mag__alapponttal
0
BLOCK_RECORD
5
72f48
100
AcDbSymbolTableRecord
100
AcDbBlockTableRecord
2
Templom_mag__alapponttal_1
0
BLOCK_RECORD
5
72f49
100
AcDbSymbolTableRecord
100
AcDbBlockTableRecord
2
Részletpont_kõ___I__rendû_
0
BLOCK_RECORD
5
72f4a
100
AcDbSymbolTableRecord
100
AcDbBlockTableRecord
2
Részletpont_egyéb__I__rendû_
0
BLOCK_RECORD
5
72f4b
100
AcDbSymbolTableRecord
100
AcDbBlockTableRecord
2
Elméleti_községhatárpont
0
BLOCK_RECORD
5
72f4c
100
AcDbSymbolTableRecord
100
AcDbBlockTableRecord
2
Határdomb
0
BLOCK_RECORD
5
72f4d
100
AcDbSymbolTableRecord
100
AcDbBlockTableRecord
2
Határdomb_kõvel
0
BLOCK_RECORD
5
72f4e
100
AcDbSymbolTableRecord
100
AcDbBlockTableRecord
2
Határdomb_faoszloppal
0
BLOCK_RECORD
5
72f4f
100
AcDbSymbolTableRecord
100
AcDbBlockTableRecord
2
Allamhatárszakasz_végpont
0
BLOCK_RECORD
5
72f50
100
AcDbSymbolTableRecord
100
AcDbBlockTableRecord
2
Településhatár
0
BLOCK_RECORD
5
72f51
100
AcDbSymbolTableRecord
100
AcDbBlockTableRecord
2
Belterület_határ
0
BLOCK_RECORD
5
72f52
100
AcDbSymbolTableRecord
100
AcDbBlockTableRecord
2
Zártkert_határ
0
BLOCK_RECORD
5
72f53
100
AcDbSymbolTableRecord
100
AcDbBlockTableRecord
2
Kapcsolójel
0
BLOCK_RECORD
5
72f54
100
AcDbSymbolTableRecord
100
AcDbBlockTableRecord
2
Epület__nem_árázolható_
0
BLOCK_RECORD
5
72f55
100
AcDbSymbolTableRecord
100
AcDbBlockTableRecord
2
Tartópillér__négyzet_
0
BLOCK_RECORD
5
72f56
100
AcDbSymbolTableRecord
100
AcDbBlockTableRecord
2
Tartópillér__kör_
0
BLOCK_RECORD
5
72f57
100
AcDbSymbolTableRecord
100
AcDbBlockTableRecord
2
Fényakna__fedetlen_
0
BLOCK_RECORD
5
72f58
100
AcDbSymbolTableRecord
100
AcDbBlockTableRecord
2
Fényakna__fedett_
0
BLOCK_RECORD
5
72f59
100
AcDbSymbolTableRecord
100
AcDbBlockTableRecord
2
Szobor__emlékmû
0
BLOCK_RECORD
5
72f5a
100
AcDbSymbolTableRecord
100
AcDbBlockTableRecord
2
Szobor_emlékmû__1_4000_
0
BLOCK_RECORD
5
72f5b
100
AcDbSymbolTableRecord
100
AcDbBlockTableRecord
2
Kémény_épületben_1
0
BLOCK_RECORD
5
72f5c
100
AcDbSymbolTableRecord
100
AcDbBlockTableRecord
2
Kémény_épületben_2
0
BLOCK_RECORD
5
72f5d
100
AcDbSymbolTableRecord
100
AcDbBlockTableRecord
2
Kémény_épületben_3__1_4000_
0
BLOCK_RECORD
5
72f5e
100
AcDbSymbolTableRecord
100
AcDbBlockTableRecord
2
Különálló_kémény_1
0
BLOCK_RECORD
5
72f5f
100
AcDbSymbolTableRecord
100
AcDbBlockTableRecord
2
Különálló_kémény_2
0
BLOCK_RECORD
5
72f60
100
AcDbSymbolTableRecord
100
AcDbBlockTableRecord
2
Különálló_kémény_3__1_4000_
0
BLOCK_RECORD
5
72f61
100
AcDbSymbolTableRecord
100
AcDbBlockTableRecord
2
Különálló_kémény_4__1_4000_
0
BLOCK_RECORD
5
72f62
100
AcDbSymbolTableRecord
100
AcDbBlockTableRecord
2
Kilátó_víztorony
0
BLOCK_RECORD
5
72f63
100
AcDbSymbolTableRecord
100
AcDbBlockTableRecord
2
Torony
0
BLOCK_RECORD
5
72f64
100
AcDbSymbolTableRecord
100
AcDbBlockTableRecord
2
Torony_épületen
0
BLOCK_RECORD
5
72f65
100
AcDbSymbolTableRecord
100
AcDbBlockTableRecord
2
Templom__kápolna_1
0
BLOCK_RECORD
5
72f66
100
AcDbSymbolTableRecord
100
AcDbBlockTableRecord
2
Templom__kápolna_2
0
BLOCK_RECORD
5
72f67
100
AcDbSymbolTableRecord
100
AcDbBlockTableRecord
2
Egyedül_álló_fa_1
0
BLOCK_RECORD
5
72f68
100
AcDbSymbolTableRecord
100
AcDbBlockTableRecord
2
Egyedûl_álló_fa_2
0
BLOCK_RECORD
5
72f69
100
AcDbSymbolTableRecord
100
AcDbBlockTableRecord
2
Szélmotor
0
BLOCK_RECORD
5
72f6a
100
AcDbSymbolTableRecord
100
AcDbBlockTableRecord
2
Függõleges_akna
0
BLOCK_RECORD
5
72f6b
100
AcDbSymbolTableRecord
100
AcDbBlockTableRecord
2
Lejtõs_akna
0
BLOCK_RECORD
5
72f6c
100
AcDbSymbolTableRecord
100
AcDbBlockTableRecord
2
Egetõ_kemence
0
BLOCK_RECORD
5
72f6d
100
AcDbSymbolTableRecord
100
AcDbBlockTableRecord
2
Dögkút__siló
0
BLOCK_RECORD
5
72f6e
100
AcDbSymbolTableRecord
100
AcDbBlockTableRecord
2
Kõkereszt_1
0
BLOCK_RECORD
5
72f6f
100
AcDbSymbolTableRecord
100
AcDbBlockTableRecord
2
Kõkereszt_2
0
BLOCK_RECORD
5
72f70
100
AcDbSymbolTableRecord
100
AcDbBlockTableRecord
2
Harangláb_1
0
BLOCK_RECORD
5
72f71
100
AcDbSymbolTableRecord
100
AcDbBlockTableRecord
2
Harangláb_2
0
BLOCK_RECORD
5
72f72
100
AcDbSymbolTableRecord
100
AcDbBlockTableRecord
2
Sír__kripta
0
BLOCK_RECORD
5
72f73
100
AcDbSymbolTableRecord
100
AcDbBlockTableRecord
2
Közúti_azonosító
0
BLOCK_RECORD
5
72f74
100
AcDbSymbolTableRecord
100
AcDbBlockTableRecord
2
Villamosított_vasút
0
BLOCK_RECORD
5
72f75
100
AcDbSymbolTableRecord
100
AcDbBlockTableRecord
2
Bejárati_jelzõ
0
BLOCK_RECORD
5
72f76
100
AcDbSymbolTableRecord
100
AcDbBlockTableRecord
2
Fogaskerekû_vasút
0
BLOCK_RECORD
5
72f77
100
AcDbSymbolTableRecord
100
AcDbBlockTableRecord
2
Vágány_vége
0
BLOCK_RECORD
5
72f78
100
AcDbSymbolTableRecord
100
AcDbBlockTableRecord
2
Uzemanyagtöltõ_kút
0
BLOCK_RECORD
5
72f79
100
AcDbSymbolTableRecord
100
AcDbBlockTableRecord
2
Ateresz
0
BLOCK_RECORD
5
72f7a
100
AcDbSymbolTableRecord
100
AcDbBlockTableRecord
2
Segélykérõ_telefon
0
BLOCK_RECORD
5
72f7b
100
AcDbSymbolTableRecord
100
AcDbBlockTableRecord
2
Közúti_kilométertábla
0
BLOCK_RECORD
5
72f7c
100
AcDbSymbolTableRecord
100
AcDbBlockTableRecord
2
Közúti_kilométerkõ
0
BLOCK_RECORD
5
72f7d
100
AcDbSymbolTableRecord
100
AcDbBlockTableRecord
2
Távvezeték_tartója__alapozott_
0
BLOCK_RECORD
5
72f7e
100
AcDbSymbolTableRecord
100
AcDbBlockTableRecord
2
Távvezeték_tartója
0
BLOCK_RECORD
5
72f7f
100
AcDbSymbolTableRecord
100
AcDbBlockTableRecord
2
Elektromos_vez__nyilai
0
BLOCK_RECORD
5
72f80
100
AcDbSymbolTableRecord
100
AcDbBlockTableRecord
2
Földelõ_kút
0
BLOCK_RECORD
5
72f81
100
AcDbSymbolTableRecord
100
AcDbBlockTableRecord
2
Drótkötélpálya
0
BLOCK_RECORD
5
72f82
100
AcDbSymbolTableRecord
100
AcDbBlockTableRecord
2
Olaj-_és_gázkút
0
BLOCK_RECORD
5
72f83
100
AcDbSymbolTableRecord
100
AcDbBlockTableRecord
2
Transzformátor
0
BLOCK_RECORD
5
72f84
100
AcDbSymbolTableRecord
100
AcDbBlockTableRecord
2
Antenna_rögzítõ_pontja
0
BLOCK_RECORD
5
72f85
100
AcDbSymbolTableRecord
100
AcDbBlockTableRecord
2
Antenna
0
BLOCK_RECORD
5
72f86
100
AcDbSymbolTableRecord
100
AcDbBlockTableRecord
2
Irányjelzõ_tábla
0
BLOCK_RECORD
5
72f87
100
AcDbSymbolTableRecord
100
AcDbBlockTableRecord
2
Szaglócsõ
0
BLOCK_RECORD
5
72f88
100
AcDbSymbolTableRecord
100
AcDbBlockTableRecord
2
Transzformátorház
0
BLOCK_RECORD
5
72f89
100
AcDbSymbolTableRecord
100
AcDbBlockTableRecord
2
Tûzcsap
0
BLOCK_RECORD
5
72f8a
100
AcDbSymbolTableRecord
100
AcDbBlockTableRecord
2
Zsilip
0
BLOCK_RECORD
5
72f8b
100
AcDbSymbolTableRecord
100
AcDbBlockTableRecord
2
Vízmérce
0
BLOCK_RECORD
5
72f8c
100
AcDbSymbolTableRecord
100
AcDbBlockTableRecord
2
Forrás
0
BLOCK_RECORD
5
72f8d
100
AcDbSymbolTableRecord
100
AcDbBlockTableRecord
2
Foglalt_forrás
0
BLOCK_RECORD
5
72f8e
100
AcDbSymbolTableRecord
100
AcDbBlockTableRecord
2
Közkút__artézi_kút
0
BLOCK_RECORD
5
72f8f
100
AcDbSymbolTableRecord
100
AcDbBlockTableRecord
2
Gémeskút
0
BLOCK_RECORD
5
72f90
100
AcDbSymbolTableRecord
100
AcDbBlockTableRecord
2
Szökõkút__díszkút
0
BLOCK_RECORD
5
72f91
100
AcDbSymbolTableRecord
100
AcDbBlockTableRecord
2
Egyéb_kút
0
BLOCK_RECORD
5
72f92
100
AcDbSymbolTableRecord
100
AcDbBlockTableRecord
2
Hidroglóbusz
0
BLOCK_RECORD
5
72f93
100
AcDbSymbolTableRecord
100
AcDbBlockTableRecord
2
Aknafedlap__kör_
0
BLOCK_RECORD
5
72f94
100
AcDbSymbolTableRecord
100
AcDbBlockTableRecord
2
Aknafedlap__négyzet_
0
BLOCK_RECORD
5
72f95
100
AcDbSymbolTableRecord
100
AcDbBlockTableRecord
2
Eséstüske
0
BLOCK_RECORD
5
72f96
100
AcDbSymbolTableRecord
100
AcDbBlockTableRecord
2
Rézsû_____1m_
0
BLOCK_RECORD
5
72f97
100
AcDbSymbolTableRecord
100
AcDbBlockTableRecord
2
Karsztlyuk
0
BLOCK_RECORD
5
72f98
100
AcDbSymbolTableRecord
100
AcDbBlockTableRecord
2
Sziklarajz
0
BLOCK_RECORD
5
72f99
100
AcDbSymbolTableRecord
100
AcDbBlockTableRecord
2
Homok-_és_földomladék
0
BLOCK_RECORD
5
72f9a
100
AcDbSymbolTableRecord
100
AcDbBlockTableRecord
2
Kõ-_és_kavicsomladék
0
BLOCK_RECORD
5
72f9b
100
AcDbSymbolTableRecord
100
AcDbBlockTableRecord
2
Kótált_pont
0
BLOCK_RECORD
5
72f9c
100
AcDbSymbolTableRecord
100
AcDbBlockTableRecord
2
Nullkör_1_mm
0
BLOCK_RECORD
5
72f9d
100
AcDbSymbolTableRecord
100
AcDbBlockTableRecord
2
Nullkör_3_mm
0
BLOCK_RECORD
5
72f9e
100
AcDbSymbolTableRecord
100
AcDbBlockTableRecord
2
Kereszt_1_5_mm
0
BLOCK_RECORD
5
72f9f
100
AcDbSymbolTableRecord
100
AcDbBlockTableRecord
2
Kereszt_3_mm
0
BLOCK_RECORD
5
72fa0
100
AcDbSymbolTableRecord
100
AcDbBlockTableRecord
2
Telikör_1_5_mm
0
BLOCK_RECORD
5
72fa1
100
AcDbSymbolTableRecord
100
AcDbBlockTableRecord
2
Telikör_3_mm
0
BLOCK_RECORD
5
72fa2
100
AcDbSymbolTableRecord
100
AcDbBlockTableRecord
2
Részletpont__karó_
0
BLOCK_RECORD
5
72fa3
100
AcDbSymbolTableRecord
100
AcDbBlockTableRecord
2
Településhatár__fél_jel_
0
BLOCK_RECORD
5
72fa4
100
AcDbSymbolTableRecord
100
AcDbBlockTableRecord
2
Belterület_határ__fél_jel_
0
BLOCK_RECORD
5
72fa5
100
AcDbSymbolTableRecord
100
AcDbBlockTableRecord
2
Zártkert_határ__fél_jel_
0
BLOCK_RECORD
5
72fa6
100
AcDbSymbolTableRecord
100
AcDbBlockTableRecord
2
Részletpont__csap_
0
BLOCK_RECORD
5
72fa7
100
AcDbSymbolTableRecord
100
AcDbBlockTableRecord
2
Részletpont__egyéb__
0
BLOCK_RECORD
5
72fa8
100
AcDbSymbolTableRecord
100
AcDbBlockTableRecord
2
Fényakna
0
BLOCK_RECORD
5
72fa9
100
AcDbSymbolTableRecord
100
AcDbBlockTableRecord
2
Híd
0
BLOCK_RECORD
5
72faa
100
AcDbSymbolTableRecord
100
AcDbBlockTableRecord
2
Nyíl___2_5_mm_
0
BLOCK_RECORD
5
72fab
100
AcDbSymbolTableRecord
100
AcDbBlockTableRecord
2
Nyíl___4_mm_
0
BLOCK_RECORD
5
72fac
100
AcDbSymbolTableRecord
100
AcDbBlockTableRecord
2
Folyásirány_nyíl
0
BLOCK_RECORD
5
72fad
100
AcDbSymbolTableRecord
100
AcDbBlockTableRecord
2
Kerítés__drót_
0
BLOCK_RECORD
5
72fae
100
AcDbSymbolTableRecord
100
AcDbBlockTableRecord
2
Kerítés__sövény_
0
BLOCK_RECORD
5
72faf
100
AcDbSymbolTableRecord
100
AcDbBlockTableRecord
2
Kerítés__fa_
0
BLOCK_RECORD
5
72fb0
100
AcDbSymbolTableRecord
100
AcDbBlockTableRecord
2
Kerítés__fonott_
0
BLOCK_RECORD
5
72fb1
100
AcDbSymbolTableRecord
100
AcDbBlockTableRecord
2
Poláris_részletpont
0
BLOCK_RECORD
5
72fb2
100
AcDbSymbolTableRecord
100
AcDbBlockTableRecord
2
Nyíl_1__mérési_vonal_
0
BLOCK_RECORD
5
72fb3
100
AcDbSymbolTableRecord
100
AcDbBlockTableRecord
2
Nyíl_2__mérési_vonal_
0
BLOCK_RECORD
5
72fb4
100
AcDbSymbolTableRecord
100
AcDbBlockTableRecord
2
Derékszög_jel
0
BLOCK_RECORD
5
72fb5
100
AcDbSymbolTableRecord
100
AcDbBlockTableRecord
2
Kihosszabbítás_jel
0
BLOCK_RECORD
5
72fb6
100
AcDbSymbolTableRecord
100
AcDbBlockTableRecord
2
Szõlõ_mûveléság
0
ENDTAB
0
ENDSEC
0
SECTION
2
BLOCKS
0
BLOCK
5
72fb7
100
AcDbEntity
8
0
100
AcDbBlockBegin
2
*MODEL_SPACE
70
0
10
0.00
20
0.00
30
0.00
3
*MODEL_SPACE
1

0
ENDBLK
5
72fb8
100
AcDbEntity
8
0
100
AcDbBlockEnd
0
BLOCK
5
72fb9
100
AcDbEntity
8
0
67
1
100
AcDbBlockBegin
2
*PAPER_SPACE
70
0
10
0.00
20
0.00
30
0.00
3
*PAPER_SPACE
1

0
ENDBLK
5
72fba
100
AcDbEntity
8
0
67
1
100
AcDbBlockEnd
0
BLOCK
5
72fbb
100
AcDbEntity
8
0
100
AcDbBlockBegin
2
GPS_Alappont
70
0
10
0.
20
0.
30
0.
3
GPS_Alappont
1

0
TEXT
5
72fbc
100
AcDbEntity
8
OGPSH_PONT
6
Continuous
62
1
100
AcDbText
39
0.
40
5.
10
1.9999999552965164e-002
20
0.
30
0.
1
!
7
ItrW_DAT1_M2
11
1.9999999552965164e-002
21
0.
31
0.
72
0.
100
AcDbText
73
0.
0
ENDBLK
5
72fbd
100
AcDbEntity
8
0
100
AcDbBlockEnd
0
BLOCK
5
72fbe
100
AcDbEntity
8
0
100
AcDbBlockBegin
2
Felsõ_és_IV__rendû_alappont
70
0
10
0.
20
0.
30
0.
3
Fels
1

0
TEXT
5
72fbf
100
AcDbEntity
8
V_ALAPPONT
6
Continuous
62
1
100
AcDbText
39
0.
40
5.
10
0.
20
0.
30
0.
1
"
7
ItrW_DAT1_M2
11
0.
21
0.
31
0.
72
0.
100
AcDbText
73
0.
0
ENDBLK
5
72fc0
100
AcDbEntity
8
0
100
AcDbBlockEnd
0
BLOCK
5
72fc1
100
AcDbEntity
8
0
100
AcDbBlockBegin
2
Alappont_mérõtorony
70
0
10
0.
20
0.
30
0.
3
Alappont_mér
1

0
TEXT
5
72fc2
100
AcDbEntity
8
V_ALAPPONT
6
Continuous
62
1
100
AcDbText
39
0.
40
5.
10
0.
20
0.
30
0.
1
#
7
ItrW_DAT1_M2
11
0.
21
0.
31
0.
72
0.
100
AcDbText
73
0.
0
ENDBLK
5
72fc3
100
AcDbEntity
8
0
100
AcDbBlockEnd
0
BLOCK
5
72fc4
100
AcDbEntity
8
0
100
AcDbBlockBegin
2
Alappont_halmon
70
0
10
0.
20
0.
30
0.
3
Alappont_halmon
1

0
TEXT
5
72fc5
100
AcDbEntity
8
V_ALAPPONT
6
Continuous
62
1
100
AcDbText
39
0.
40
5.
10
0.
20
0.
30
0.
1
$
7
ItrW_DAT1_M2
11
0.
21
0.
31
0.
72
0.
100
AcDbText
73
0.
0
ENDBLK
5
72fc6
100
AcDbEntity
8
0
100
AcDbBlockEnd
0
BLOCK
5
72fc7
100
AcDbEntity
8
0
100
AcDbBlockBegin
2
Alappont_gyárkémény
70
0
10
0.
20
0.
30
0.
3
Alappont_gyárkémény
1

0
TEXT
5
72fc8
100
AcDbEntity
8
V_ALAPPONT
6
Continuous
62
1
100
AcDbText
39
0.
40
5.
10
0.
20
0.
30
0.
1
%
7
ItrW_DAT1_M2
11
0.
21
0.
31
0.
72
0.
100
AcDbText
73
0.
0
ENDBLK
5
72fc9
100
AcDbEntity
8
0
100
AcDbBlockEnd
0
BLOCK
5
72fca
100
AcDbEntity
8
0
100
AcDbBlockBegin
2
Alappont_víztorony
70
0
10
0.
20
0.
30
0.
3
Alappont_víztorony
1

0
TEXT
5
72fcb
100
AcDbEntity
8
V_ALAPPONT
6
Continuous
62
1
100
AcDbText
39
0.
40
5.
10
0.
20
0.
30
0.
1
&
7
ItrW_DAT1_M2
11
0.
21
0.
31
0.
72
0.
100
AcDbText
73
0.
0
ENDBLK
5
72fcc
100
AcDbEntity
8
0
100
AcDbBlockEnd
0
BLOCK
5
72fcd
100
AcDbEntity
8
0
100
AcDbBlockBegin
2
Alappont_templomtorony
70
0
10
0.
20
0.
30
0.
3
Alappont_templomtorony
1

0
TEXT
5
72fce
100
AcDbEntity
8
V_ALAPPONT
6
Continuous
62
1
100
AcDbText
39
0.
40
5.
10
0.
20
0.
30
0.
1
'
7
ItrW_DAT1_M2
11
0.
21
0.
31
0.
72
0.
100
AcDbText
73
0.
0
ENDBLK
5
72fcf
100
AcDbEntity
8
0
100
AcDbBlockEnd
0
BLOCK
5
72fd0
100
AcDbEntity
8
0
100
AcDbBlockBegin
2
Alappont_magaspont
70
0
10
0.
20
0.
30
0.
3
Alappont_magaspont
1

0
TEXT
5
72fd1
100
AcDbEntity
8
V_ALAPPONT
6
Continuous
62
1
100
AcDbText
39
0.
40
5.
10
0.
20
0.
30
0.
1
(
7
ItrW_DAT1_M2
11
0.
21
0.
31
0.
72
0.
100
AcDbText
73
0.
0
ENDBLK
5
72fd2
100
AcDbEntity
8
0
100
AcDbBlockEnd
0
BLOCK
5
72fd3
100
AcDbEntity
8
0
100
AcDbBlockBegin
2
Alappont_ha_a_jele_zavar
70
0
10
0.
20
0.
30
0.
3
Alappont_ha_a_jele_zavar
1

0
TEXT
5
72fd4
100
AcDbEntity
8
V_ALAPPONT
6
Continuous
62
1
100
AcDbText
39
0.
40
5.
10
0.
20
0.
30
0.
1
)
7
ItrW_DAT1_M2
11
0.
21
0.
31
0.
72
0.
100
AcDbText
73
0.
0
ENDBLK
5
72fd5
100
AcDbEntity
8
0
100
AcDbBlockEnd
0
BLOCK
5
72fd6
100
AcDbEntity
8
0
100
AcDbBlockBegin
2
Otödrendû_alappont
70
0
10
0.
20
0.
30
0.
3
Otödrend
1

0
TEXT
5
72fd7
100
AcDbEntity
8
V_ALAPPONT
6
Continuous
62
1
100
AcDbText
39
0.
40
5.
10
0.
20
0.
30
0.
1
*
7
ItrW_DAT1_M2
11
0.
21
0.
31
0.
72
0.
100
AcDbText
73
0.
0
ENDBLK
5
72fd8
100
AcDbEntity
8
0
100
AcDbBlockEnd
0
BLOCK
5
72fd9
100
AcDbEntity
8
0
100
AcDbBlockBegin
2
Otödrendû_ap___gyárkémény
70
0
10
0.
20
0.
30
0.
3
Otödrend
1

0
TEXT
5
72fda
100
AcDbEntity
8
V_ALAPPONT
6
Continuous
62
1
100
AcDbText
39
0.
40
5.
10
0.
20
0.
30
0.
1
+
7
ItrW_DAT1_M2
11
0.
21
0.
31
0.
72
0.
100
AcDbText
73
0.
0
ENDBLK
5
72fdb
100
AcDbEntity
8
0
100
AcDbBlockEnd
0
BLOCK
5
72fdc
100
AcDbEntity
8
0
100
AcDbBlockBegin
2
Otödrendû_ap__víztorony
70
0
10
0.
20
0.
30
0.
3
Otödrend
1

0
TEXT
5
72fdd
100
AcDbEntity
8
V_ALAPPONT
6
Continuous
62
1
100
AcDbText
39
0.
40
5.
10
0.
20
-0.60000002384185791
30
0.
1
,
7
ItrW_DAT1_M2
11
0.
21
-0.60000002384185791
31
0.
72
0.
100
AcDbText
73
0.
0
ENDBLK
5
72fde
100
AcDbEntity
8
0
100
AcDbBlockEnd
0
BLOCK
5
72fdf
100
AcDbEntity
8
0
100
AcDbBlockBegin
2
Otödrendû_ap__magaspont
70
0
10
0.
20
0.
30
0.
3
Otödrend
1

0
TEXT
5
72fe0
100
AcDbEntity
8
V_ALAPPONT
6
Continuous
62
1
100
AcDbText
39
0.
40
5.
10
0.
20
0.
30
0.
1
-
7
ItrW_DAT1_M2
11
0.
21
0.
31
0.
72
0.
100
AcDbText
73
0.
0
ENDBLK
5
72fe1
100
AcDbEntity
8
0
100
AcDbBlockEnd
0
BLOCK
5
72fe2
100
AcDbEntity
8
0
100
AcDbBlockBegin
2
Otödrendû_ap__templomtorony
70
0
10
0.
20
0.
30
0.
3
Otödrend
1

0
TEXT
5
72fe3
100
AcDbEntity
8
V_ALAPPONT
6
Continuous
62
1
100
AcDbText
39
0.
40
5.
10
0.
20
0.
30
0.
1
.
7
ItrW_DAT1_M2
11
0.
21
0.
31
0.
72
0.
100
AcDbText
73
0.
0
ENDBLK
5
72fe4
100
AcDbEntity
8
0
100
AcDbBlockEnd
0
BLOCK
5
72fe5
100
AcDbEntity
8
0
100
AcDbBlockBegin
2
Otödrendû_ap__halmon
70
0
10
0.
20
0.
30
0.
3
Otödrend
1

0
TEXT
5
72fe6
100
AcDbEntity
8
V_ALAPPONT
6
Continuous
62
1
100
AcDbText
39
0.
40
5.
10
0.
20
0.
30
0.
1
/
7
ItrW_DAT1_M2
11
0.
21
0.
31
0.
72
0.
100
AcDbText
73
0.
0
ENDBLK
5
72fe7
100
AcDbEntity
8
0
100
AcDbBlockEnd
0
BLOCK
5
72fe8
100
AcDbEntity
8
0
100
AcDbBlockBegin
2
Felmérési_ap__kõ
70
0
10
0.
20
0.
30
0.
3
Felmérési_ap__k
1

0
TEXT
5
72fe9
100
AcDbEntity
8
V_ALAPPONT
6
Continuous
62
1
100
AcDbText
39
0.
40
5.
10
0.
20
0.
30
0.
1
0
7
ItrW_DAT1_M2
11
0.
21
0.
31
0.
72
0.
100
AcDbText
73
0.
0
ENDBLK
5
72fea
100
AcDbEntity
8
0
100
AcDbBlockEnd
0
BLOCK
5
72feb
100
AcDbEntity
8
0
100
AcDbBlockBegin
2
Felmérési_ap__halmon
70
0
10
0.
20
0.
30
0.
3
Felmérési_ap__halmon
1

0
TEXT
5
72fec
100
AcDbEntity
8
V_ALAPPONT
6
Continuous
62
1
100
AcDbText
39
0.
40
5.
10
0.
20
-0.5
30
0.
1
1
7
ItrW_DAT1_M2
11
0.
21
-0.5
31
0.
72
0.
100
AcDbText
73
0.
0
ENDBLK
5
72fed
100
AcDbEntity
8
0
100
AcDbBlockEnd
0
BLOCK
5
72fee
100
AcDbEntity
8
0
100
AcDbBlockBegin
2
Felmérési_ap__gyárkémény
70
0
10
0.
20
0.
30
0.
3
Felmérési_ap__gyárkémény
1

0
TEXT
5
72fef
100
AcDbEntity
8
V_ALAPPONT
6
Continuous
62
1
100
AcDbText
39
0.
40
5.
10
0.
20
0.
30
0.
1
2
7
ItrW_DAT1_M2
11
0.
21
0.
31
0.
72
0.
100
AcDbText
73
0.
0
ENDBLK
5
72ff0
100
AcDbEntity
8
0
100
AcDbBlockEnd
0
BLOCK
5
72ff1
100
AcDbEntity
8
0
100
AcDbBlockBegin
2
Felmérési_ap__hidroglóbusz
70
0
10
0.
20
0.
30
0.
3
Felmérési_ap__hidroglóbusz
1

0
TEXT
5
72ff2
100
AcDbEntity
8
V_ALAPPONT
6
Continuous
62
1
100
AcDbText
39
0.
40
5.
10
0.
20
0.
30
0.
1
3
7
ItrW_DAT1_M2
11
0.
21
0.
31
0.
72
0.
100
AcDbText
73
0.
0
ENDBLK
5
72ff3
100
AcDbEntity
8
0
100
AcDbBlockEnd
0
BLOCK
5
72ff4
100
AcDbEntity
8
0
100
AcDbBlockBegin
2
Felmérési_ap__kereszt
70
0
10
0.
20
0.
30
0.
3
Felmérési_ap__kereszt
1

0
TEXT
5
72ff5
100
AcDbEntity
8
V_ALAPPONT
6
Continuous
62
1
100
AcDbText
39
0.
40
5.
10
0.
20
0.
30
0.
1
4
7
ItrW_DAT1_M2
11
0.
21
0.
31
0.
72
0.
100
AcDbText
73
0.
0
ENDBLK
5
72ff6
100
AcDbEntity
8
0
100
AcDbBlockEnd
0
BLOCK
5
72ff7
100
AcDbEntity
8
0
100
AcDbBlockBegin
2
Felmérési_ap__víztorony
70
0
10
0.
20
0.
30
0.
3
Felmérési_ap__víztorony
1

0
TEXT
5
72ff8
100
AcDbEntity
8
V_ALAPPONT
6
Continuous
62
1
100
AcDbText
39
0.
40
5.
10
0.
20
0.
30
0.
1
5
7
ItrW_DAT1_M2
11
0.
21
0.
31
0.
72
0.
100
AcDbText
73
0.
0
ENDBLK
5
72ff9
100
AcDbEntity
8
0
100
AcDbBlockEnd
0
BLOCK
5
72ffa
100
AcDbEntity
8
0
100
AcDbBlockBegin
2
Felmérési_ap__egyéb
70
0
10
0.
20
0.
30
0.
3
Felmérési_ap__egyéb
1

0
TEXT
5
72ffb
100
AcDbEntity
8
V_ALAPPONT
6
Continuous
62
1
100
AcDbText
39
0.
40
5.
10
0.
20
0.
30
0.
1
6
7
ItrW_DAT1_M2
11
0.
21
0.
31
0.
72
0.
100
AcDbText
73
0.
0
ENDBLK
5
72ffc
100
AcDbEntity
8
0
100
AcDbBlockEnd
0
BLOCK
5
72ffd
100
AcDbEntity
8
0
100
AcDbBlockBegin
2
Alappont_csak_a_föld_alatt
70
0
10
0.
20
0.
30
0.
3
Alappont_csak_a_föld_alatt
1

0
TEXT
5
72ffe
100
AcDbEntity
8
V_ALAPPONT
6
Continuous
62
1
100
AcDbText
39
0.
40
5.
10
0.
20
0.
30
0.
1
7
7
ItrW_DAT1_M2
11
0.
21
0.
31
0.
72
0.
100
AcDbText
73
0.
0
ENDBLK
5
72fff
100
AcDbEntity
8
0
100
AcDbBlockEnd
0
BLOCK
5
73000
100
AcDbEntity
8
0
100
AcDbBlockBegin
2
Alappont_gravimetriai
70
0
10
0.
20
0.
30
0.
3
Alappont_gravimetriai
1

0
TEXT
5
73001
100
AcDbEntity
8
GR_ALAPPONT
6
Continuous
62
1
100
AcDbText
39
0.
40
5.
10
0.
20
0.
30
0.
1
8
7
ItrW_DAT1_M2
11
0.
21
0.
31
0.
72
0.
100
AcDbText
73
0.
0
ENDBLK
5
73002
100
AcDbEntity
8
0
100
AcDbBlockEnd
0
BLOCK
5
73003
100
AcDbEntity
8
0
100
AcDbBlockBegin
2
Magassági_fõalappont
70
0
10
0.
20
0.
30
0.
3
Magassági_f
1

0
TEXT
5
73004
100
AcDbEntity
8
M_ALAPPONT
6
Continuous
62
1
100
AcDbText
39
0.
40
5.
10
0.
20
0.
30
0.
1
9
7
ItrW_DAT1_M2
11
0.
21
0.
31
0.
72
0.
100
AcDbText
73
0.
0
ENDBLK
5
73005
100
AcDbEntity
8
0
100
AcDbBlockEnd
0
BLOCK
5
73006
100
AcDbEntity
8
0
100
AcDbBlockBegin
2
Magassági_ap___I_-IV__rendû_
70
0
10
0.
20
0.
30
0.
3
Magassági_ap___I_-IV__rend
1

0
TEXT
5
73007
100
AcDbEntity
8
M_ALAPPONT
6
Continuous
62
1
100
AcDbText
39
0.
40
5.
10
0.
20
0.
30
0.
1
:
7
ItrW_DAT1_M2
11
0.
21
0.
31
0.
72
0.
100
AcDbText
73
0.
0
ENDBLK
5
73008
100
AcDbEntity
8
0
100
AcDbBlockEnd
0
BLOCK
5
73009
100
AcDbEntity
8
0
100
AcDbBlockBegin
2
Templom_mag__alapponttal
70
0
10
0.
20
0.
30
0.
3
Templom_mag__alapponttal
1

0
TEXT
5
7300a
100
AcDbEntity
8
V_ALAPPONT
6
Continuous
62
1
100
AcDbText
39
0.
40
5.
10
0.
20
0.
30
0.
1
;
7
ItrW_DAT1_M2
11
0.
21
0.
31
0.
72
0.
100
AcDbText
73
0.
0
ENDBLK
5
7300b
100
AcDbEntity
8
0
100
AcDbBlockEnd
0
BLOCK
5
7300c
100
AcDbEntity
8
0
100
AcDbBlockBegin
2
Templom_mag__alapponttal_1
70
0
10
0.
20
0.
30
0.
3
Templom_mag__alapponttal_1
1

0
TEXT
5
7300d
100
AcDbEntity
8
V_ALAPPONT
6
Continuous
62
1
100
AcDbText
39
0.
40
5.
10
0.
20
0.
30
0.
1
<
7
ItrW_DAT1_M2
11
0.
21
0.
31
0.
72
0.
100
AcDbText
73
0.
0
ENDBLK
5
7300e
100
AcDbEntity
8
0
100
AcDbBlockEnd
0
BLOCK
5
7300f
100
AcDbEntity
8
0
100
AcDbBlockBegin
2
Részletpont_kõ___I__rendû_
70
0
10
0.
20
0.
30
0.
3
Részletpont_k
1

0
TEXT
5
73010
100
AcDbEntity
8
ITR-10-FRL_HATAR
6
Continuous
62
1
100
AcDbText
39
0.
40
5.
10
0.
20
0.
30
0.
1
=
7
ItrW_DAT1_M2
11
0.
21
0.
31
0.
72
0.
100
AcDbText
73
0.
0
ENDBLK
5
73011
100
AcDbEntity
8
0
100
AcDbBlockEnd
0
BLOCK
5
73012
100
AcDbEntity
8
0
100
AcDbBlockBegin
2
Részletpont_egyéb__I__rendû_
70
0
10
0.
20
0.
30
0.
3
Részletpont_egyéb__I__rend
1

0
TEXT
5
73013
100
AcDbEntity
8
ITR-10-FRL_HATAR
6
Continuous
62
1
100
AcDbText
39
0.
40
5.
10
0.
20
0.
30
0.
1
>
7
ItrW_DAT1_M2
11
0.
21
0.
31
0.
72
0.
100
AcDbText
73
0.
0
ENDBLK
5
73014
100
AcDbEntity
8
0
100
AcDbBlockEnd
0
BLOCK
5
73015
100
AcDbEntity
8
0
100
AcDbBlockBegin
2
Elméleti_községhatárpont
70
0
10
0.
20
0.
30
0.
3
Elméleti_községhatárpont
1

0
TEXT
5
73016
100
AcDbEntity
8
ITR-6-TELEPULESHAT
6
Continuous
62
1
100
AcDbText
39
0.
40
5.
10
0.
20
0.
30
0.
1
?
7
ItrW_DAT1_M2
11
0.
21
0.
31
0.
72
0.
100
AcDbText
73
0.
0
ENDBLK
5
73017
100
AcDbEntity
8
0
100
AcDbBlockEnd
0
BLOCK
5
73018
100
AcDbEntity
8
0
100
AcDbBlockBegin
2
Határdomb
70
0
10
0.
20
0.
30
0.
3
Határdomb
1

0
TEXT
5
73019
100
AcDbEntity
8
ITR-6-TELEPULESHAT
6
Continuous
62
1
100
AcDbText
39
0.
40
5.
10
0.10000000149011612
20
0.
30
0.
1
@
7
ItrW_DAT1_M2
11
0.10000000149011612
21
0.
31
0.
72
0.
100
AcDbText
73
0.
0
ENDBLK
5
7301a
100
AcDbEntity
8
0
100
AcDbBlockEnd
0
BLOCK
5
7301b
100
AcDbEntity
8
0
100
AcDbBlockBegin
2
Határdomb_kõvel
70
0
10
0.
20
0.
30
0.
3
Határdomb_k
1

0
TEXT
5
7301c
100
AcDbEntity
8
ITR-6-TELEPULESHAT
6
Continuous
62
1
100
AcDbText
39
0.
40
5.
10
0.
20
0.
30
0.
1
B
7
ItrW_DAT1_M2
11
0.
21
0.
31
0.
72
0.
100
AcDbText
73
0.
0
ENDBLK
5
7301d
100
AcDbEntity
8
0
100
AcDbBlockEnd
0
BLOCK
5
7301e
100
AcDbEntity
8
0
100
AcDbBlockBegin
2
Határdomb_faoszloppal
70
0
10
0.
20
0.
30
0.
3
Határdomb_faoszloppal
1

0
TEXT
5
7301f
100
AcDbEntity
8
ITR-6-TELEPULESHAT
6
Continuous
62
1
100
AcDbText
39
0.
40
5.
10
0.
20
0.
30
0.
1
C
7
ItrW_DAT1_M2
11
0.
21
0.
31
0.
72
0.
100
AcDbText
73
0.
0
ENDBLK
5
73020
100
AcDbEntity
8
0
100
AcDbBlockEnd
0
BLOCK
5
73021
100
AcDbEntity
8
0
100
AcDbBlockBegin
2
Allamhatárszakasz_végpont
70
0
10
0.
20
0.
30
0.
3
Allamhatárszakasz_végpont
1

0
TEXT
5
73022
100
AcDbEntity
8
ITR-4-ALLAMHATAR
6
Continuous
62
1
100
AcDbText
39
0.
40
5.
10
0.
20
0.
30
0.
1
D
7
ItrW_DAT1_M2
11
0.
21
0.
31
0.
72
0.
100
AcDbText
73
0.
0
ENDBLK
5
73023
100
AcDbEntity
8
0
100
AcDbBlockEnd
0
BLOCK
5
73024
100
AcDbEntity
8
0
100
AcDbBlockBegin
2
Településhatár
70
0
10
0.
20
0.
30
0.
3
Településhatár
1

0
TEXT
5
73025
100
AcDbEntity
8
ITR-6-TELEPULESHAT
6
Continuous
62
1
100
AcDbText
39
0.
40
5.
10
0.
20
0.
30
0.
1
E
7
ItrW_DAT1_M2
11
0.
21
0.
31
0.
72
0.
100
AcDbText
73
0.
0
ENDBLK
5
73026
100
AcDbEntity
8
0
100
AcDbBlockEnd
0
BLOCK
5
73027
100
AcDbEntity
8
0
100
AcDbBlockBegin
2
Belterület_határ
70
0
10
0.
20
0.
30
0.
3
Belterület_határ
1

0
TEXT
5
73028
100
AcDbEntity
8
ITR-7-FEKVESHATAR
6
Continuous
62
1
100
AcDbText
39
0.
40
5.
10
0.
20
0.
30
0.
1
F
7
ItrW_DAT1_M2
11
0.
21
0.
31
0.
72
0.
100
AcDbText
73
0.
0
ENDBLK
5
73029
100
AcDbEntity
8
0
100
AcDbBlockEnd
0
BLOCK
5
7302a
100
AcDbEntity
8
0
100
AcDbBlockBegin
2
Zártkert_határ
70
0
10
0.
20
0.
30
0.
3
Zártkert_határ
1

0
TEXT
5
7302b
100
AcDbEntity
8
ITR-7-FEKVESHATAR
6
Continuous
62
1
100
AcDbText
39
0.
40
5.
10
0.
20
0.
30
0.
1
G
7
ItrW_DAT1_M2
11
0.
21
0.
31
0.
72
0.
100
AcDbText
73
0.
0
ENDBLK
5
7302c
100
AcDbEntity
8
0
100
AcDbBlockEnd
0
BLOCK
5
7302d
100
AcDbEntity
8
0
100
AcDbBlockBegin
2
Kapcsolójel
70
0
10
0.
20
0.
30
0.
3
Kapcsolójel
1

0
TEXT
5
7302e
100
AcDbEntity
8
Error
6
Continuous
62
1
100
AcDbText
39
0.
40
5.
10
0.
20
0.
30
0.
1
H
7
ItrW_DAT1_M2
11
0.
21
0.
31
0.
72
0.
100
AcDbText
73
0.
0
ENDBLK
5
7302f
100
AcDbEntity
8
0
100
AcDbBlockEnd
0
BLOCK
5
73030
100
AcDbEntity
8
0
100
AcDbBlockBegin
2
Epület__nem_árázolható_
70
0
10
0.
20
0.
30
0.
3
Epület__nem_árázolható_
1

0
TEXT
5
73031
100
AcDbEntity
8
ITR-31-GAZD_EPULET
6
Continuous
62
1
100
AcDbText
39
0.
40
5.
10
0.
20
0.
30
0.
1
I
7
ItrW_DAT1_M2
11
0.
21
0.
31
0.
72
0.
100
AcDbText
73
0.
0
ENDBLK
5
73032
100
AcDbEntity
8
0
100
AcDbBlockEnd
0
BLOCK
5
73033
100
AcDbEntity
8
0
100
AcDbBlockBegin
2
Tartópillér__négyzet_
70
0
10
0.
20
0.
30
0.
3
Tartópillér__négyzet_
1

0
TEXT
5
73034
100
AcDbEntity
8
ITR-34-UZEMI_EPULET
6
Continuous
62
1
100
AcDbText
39
0.
40
5.
10
0.
20
0.
30
0.
1
J
7
ItrW_DAT1_M2
11
0.
21
0.
31
0.
72
0.
100
AcDbText
73
0.
0
ENDBLK
5
73035
100
AcDbEntity
8
0
100
AcDbBlockEnd
0
BLOCK
5
73036
100
AcDbEntity
8
0
100
AcDbBlockBegin
2
Tartópillér__kör_
70
0
10
0.
20
0.
30
0.
3
Tartópillér__kör_
1

0
TEXT
5
73037
100
AcDbEntity
8
ITR-34-UZEMI_EPULET
6
Continuous
62
1
100
AcDbText
39
0.
40
5.
10
0.
20
0.
30
0.
1
K
7
ItrW_DAT1_M2
11
0.
21
0.
31
0.
72
0.
100
AcDbText
73
0.
0
ENDBLK
5
73038
100
AcDbEntity
8
0
100
AcDbBlockEnd
0
BLOCK
5
73039
100
AcDbEntity
8
0
100
AcDbBlockBegin
2
Fényakna__fedetlen_
70
0
10
0.
20
0.
30
0.
3
Fényakna__fedetlen_
1

0
TEXT
5
7303a
100
AcDbEntity
8
Error
6
Continuous
62
1
100
AcDbText
39
0.
40
5.
10
0.
20
0.
30
0.
1
L
7
ItrW_DAT1_M2
11
0.
21
0.
31
0.
72
0.
100
AcDbText
73
0.
0
ENDBLK
5
7303b
100
AcDbEntity
8
0
100
AcDbBlockEnd
0
BLOCK
5
7303c
100
AcDbEntity
8
0
100
AcDbBlockBegin
2
Fényakna__fedett_
70
0
10
0.
20
0.
30
0.
3
Fényakna__fedett_
1

0
TEXT
5
7303d
100
AcDbEntity
8
Error
6
Continuous
62
1
100
AcDbText
39
0.
40
5.
10
0.
20
0.
30
0.
1
M
7
ItrW_DAT1_M2
11
0.
21
0.
31
0.
72
0.
100
AcDbText
73
0.
0
ENDBLK
5
7303e
100
AcDbEntity
8
0
100
AcDbBlockEnd
0
BLOCK
5
7303f
100
AcDbEntity
8
0
100
AcDbBlockBegin
2
Szobor__emlékmû
70
0
10
0.
20
0.
30
0.
3
Szobor__emlékm
1

0
TEXT
5
73040
100
AcDbEntity
8
Error
6
Continuous
62
1
100
AcDbText
39
0.
40
5.
10
0.
20
0.
30
0.
1
N
7
ItrW_DAT1_M2
11
0.
21
0.
31
0.
72
0.
100
AcDbText
73
0.
0
ENDBLK
5
73041
100
AcDbEntity
8
0
100
AcDbBlockEnd
0
BLOCK
5
73042
100
AcDbEntity
8
0
100
AcDbBlockBegin
2
Szobor_emlékmû__1_4000_
70
0
10
0.
20
0.
30
0.
3
Szobor_emlékm
1

0
TEXT
5
73043
100
AcDbEntity
8
Error
6
Continuous
62
1
100
AcDbText
39
0.
40
5.
10
0.
20
0.
30
0.
1
O
7
ItrW_DAT1_M2
11
0.
21
0.
31
0.
72
0.
100
AcDbText
73
0.
0
ENDBLK
5
73044
100
AcDbEntity
8
0
100
AcDbBlockEnd
0
BLOCK
5
73045
100
AcDbEntity
8
0
100
AcDbBlockBegin
2
Kémény_épületben_1
70
0
10
0.
20
0.
30
0.
3
Kémény_épületben_1
1

0
TEXT
5
73046
100
AcDbEntity
8
ITR-34-UZEMI_EPULET
6
Continuous
62
1
100
AcDbText
39
0.
40
5.
10
0.
20
0.
30
0.
1
P
7
ItrW_DAT1_M2
11
0.
21
0.
31
0.
72
0.
100
AcDbText
73
0.
0
ENDBLK
5
73047
100
AcDbEntity
8
0
100
AcDbBlockEnd
0
BLOCK
5
73048
100
AcDbEntity
8
0
100
AcDbBlockBegin
2
Kémény_épületben_2
70
0
10
0.
20
0.
30
0.
3
Kémény_épületben_2
1

0
TEXT
5
73049
100
AcDbEntity
8
ITR-34-UZEMI_EPULET
6
Continuous
62
1
100
AcDbText
39
0.
40
5.
10
0.
20
0.
30
0.
1
Q
7
ItrW_DAT1_M2
11
0.
21
0.
31
0.
72
0.
100
AcDbText
73
0.
0
ENDBLK
5
7304a
100
AcDbEntity
8
0
100
AcDbBlockEnd
0
BLOCK
5
7304b
100
AcDbEntity
8
0
100
AcDbBlockBegin
2
Kémény_épületben_3__1_4000_
70
0
10
0.
20
0.
30
0.
3
Kémény_épületben_3__1_4000_
1

0
TEXT
5
7304c
100
AcDbEntity
8
ITR-34-UZEMI_EPULET
6
Continuous
62
1
100
AcDbText
39
0.
40
5.
10
0.
20
0.
30
0.
1
R
7
ItrW_DAT1_M2
11
0.
21
0.
31
0.
72
0.
100
AcDbText
73
0.
0
ENDBLK
5
7304d
100
AcDbEntity
8
0
100
AcDbBlockEnd
0
BLOCK
5
7304e
100
AcDbEntity
8
0
100
AcDbBlockBegin
2
Különálló_kémény_1
70
0
10
0.
20
0.
30
0.
3
Különálló_kémény_1
1

0
TEXT
5
7304f
100
AcDbEntity
8
Error
6
Continuous
62
1
100
AcDbText
39
0.
40
5.
10
0.
20
0.
30
0.
1
S
7
ItrW_DAT1_M2
11
0.
21
0.
31
0.
72
0.
100
AcDbText
73
0.
0
ENDBLK
5
73050
100
AcDbEntity
8
0
100
AcDbBlockEnd
0
BLOCK
5
73051
100
AcDbEntity
8
0
100
AcDbBlockBegin
2
Különálló_kémény_2
70
0
10
0.
20
0.
30
0.
3
Különálló_kémény_2
1

0
TEXT
5
73052
100
AcDbEntity
8
Error
6
Continuous
62
1
100
AcDbText
39
0.
40
5.
10
0.
20
0.
30
0.
1
T
7
ItrW_DAT1_M2
11
0.
21
0.
31
0.
72
0.
100
AcDbText
73
0.
0
ENDBLK
5
73053
100
AcDbEntity
8
0
100
AcDbBlockEnd
0
BLOCK
5
73054
100
AcDbEntity
8
0
100
AcDbBlockBegin
2
Különálló_kémény_3__1_4000_
70
0
10
0.
20
0.
30
0.
3
Különálló_kémény_3__1_4000_
1

0
TEXT
5
73055
100
AcDbEntity
8
Error
6
Continuous
62
1
100
AcDbText
39
0.
40
5.
10
0.
20
0.
30
0.
1
U
7
ItrW_DAT1_M2
11
0.
21
0.
31
0.
72
0.
100
AcDbText
73
0.
0
ENDBLK
5
73056
100
AcDbEntity
8
0
100
AcDbBlockEnd
0
BLOCK
5
73057
100
AcDbEntity
8
0
100
AcDbBlockBegin
2
Különálló_kémény_4__1_4000_
70
0
10
0.
20
0.
30
0.
3
Különálló_kémény_4__1_4000_
1

0
TEXT
5
73058
100
AcDbEntity
8
Error
6
Continuous
62
1
100
AcDbText
39
0.
40
5.
10
0.
20
0.
30
0.
1
V
7
ItrW_DAT1_M2
11
0.
21
0.
31
0.
72
0.
100
AcDbText
73
0.
0
ENDBLK
5
73059
100
AcDbEntity
8
0
100
AcDbBlockEnd
0
BLOCK
5
7305a
100
AcDbEntity
8
0
100
AcDbBlockBegin
2
Kilátó_víztorony
70
0
10
0.
20
0.
30
0.
3
Kilátó_víztorony
1

0
TEXT
5
7305b
100
AcDbEntity
8
Error
6
Continuous
62
1
100
AcDbText
39
0.
40
5.
10
0.
20
0.
30
0.
1
W
7
ItrW_DAT1_M2
11
0.
21
0.
31
0.
72
0.
100
AcDbText
73
0.
0
ENDBLK
5
7305c
100
AcDbEntity
8
0
100
AcDbBlockEnd
0
BLOCK
5
7305d
100
AcDbEntity
8
0
100
AcDbBlockBegin
2
Torony
70
0
10
0.
20
0.
30
0.
3
Torony
1

0
TEXT
5
7305e
100
AcDbEntity
8
Error
6
Continuous
62
1
100
AcDbText
39
0.
40
5.
10
0.
20
0.
30
0.
1
X
7
ItrW_DAT1_M2
11
0.
21
0.
31
0.
72
0.
100
AcDbText
73
0.
0
ENDBLK
5
7305f
100
AcDbEntity
8
0
100
AcDbBlockEnd
0
BLOCK
5
73060
100
AcDbEntity
8
0
100
AcDbBlockBegin
2
Torony_épületen
70
0
10
0.
20
0.
30
0.
3
Torony_épületen
1

0
TEXT
5
73061
100
AcDbEntity
8
Error
6
Continuous
62
1
100
AcDbText
39
0.
40
5.
10
0.
20
0.
30
0.
1
Y
7
ItrW_DAT1_M2
11
0.
21
0.
31
0.
72
0.
100
AcDbText
73
0.
0
ENDBLK
5
73062
100
AcDbEntity
8
0
100
AcDbBlockEnd
0
BLOCK
5
73063
100
AcDbEntity
8
0
100
AcDbBlockBegin
2
Templom__kápolna_1
70
0
10
0.
20
0.
30
0.
3
Templom__kápolna_1
1

0
TEXT
5
73064
100
AcDbEntity
8
ITR-33-TEMPLOM
6
Continuous
62
1
100
AcDbText
39
0.
40
5.
10
0.
20
0.
30
0.
1
Z
7
ItrW_DAT1_M2
11
0.
21
0.
31
0.
72
0.
100
AcDbText
73
0.
0
ENDBLK
5
73065
100
AcDbEntity
8
0
100
AcDbBlockEnd
0
BLOCK
5
73066
100
AcDbEntity
8
0
100
AcDbBlockBegin
2
Templom__kápolna_2
70
0
10
0.
20
0.
30
0.
3
Templom__kápolna_2
1

0
TEXT
5
73067
100
AcDbEntity
8
ITR-33-TEMPLOM
6
Continuous
62
1
100
AcDbText
39
0.
40
5.
10
0.
20
0.
30
0.
1
[
7
ItrW_DAT1_M2
11
0.
21
0.
31
0.
72
0.
100
AcDbText
73
0.
0
ENDBLK
5
73068
100
AcDbEntity
8
0
100
AcDbBlockEnd
0
BLOCK
5
73069
100
AcDbEntity
8
0
100
AcDbBlockBegin
2
Egyedül_álló_fa_1
70
0
10
0.
20
0.
30
0.
3
Egyedül_álló_fa_1
1

0
TEXT
5
7306a
100
AcDbEntity
8
Error
6
Continuous
62
1
100
AcDbText
39
0.
40
5.
10
0.
20
0.
30
0.
1
\
7
ItrW_DAT1_M2
11
0.
21
0.
31
0.
72
0.
100
AcDbText
73
0.
0
ENDBLK
5
7306b
100
AcDbEntity
8
0
100
AcDbBlockEnd
0
BLOCK
5
7306c
100
AcDbEntity
8
0
100
AcDbBlockBegin
2
Egyedûl_álló_fa_2
70
0
10
0.
20
0.
30
0.
3
Egyed
1

0
TEXT
5
7306d
100
AcDbEntity
8
Error
6
Continuous
62
1
100
AcDbText
39
0.
40
5.
10
0.
20
0.
30
0.
1
]
7
ItrW_DAT1_M2
11
0.
21
0.
31
0.
72
0.
100
AcDbText
73
0.
0
ENDBLK
5
7306e
100
AcDbEntity
8
0
100
AcDbBlockEnd
0
BLOCK
5
7306f
100
AcDbEntity
8
0
100
AcDbBlockBegin
2
Szélmotor
70
0
10
0.
20
0.
30
0.
3
Szélmotor
1

0
TEXT
5
73070
100
AcDbEntity
8
Error
6
Continuous
62
1
100
AcDbText
39
0.
40
5.
10
0.
20
0.
30
0.
1
a
7
ItrW_DAT1_M2
11
0.
21
0.
31
0.
72
0.
100
AcDbText
73
0.
0
ENDBLK
5
73071
100
AcDbEntity
8
0
100
AcDbBlockEnd
0
BLOCK
5
73072
100
AcDbEntity
8
0
100
AcDbBlockBegin
2
Függõleges_akna
70
0
10
0.
20
0.
30
0.
3
Függ
1

0
TEXT
5
73073
100
AcDbEntity
8
Error
6
Continuous
62
1
100
AcDbText
39
0.
40
5.
10
0.
20
0.
30
0.
1
_
7
ItrW_DAT1_M2
11
0.
21
0.
31
0.
72
0.
100
AcDbText
73
0.
0
ENDBLK
5
73074
100
AcDbEntity
8
0
100
AcDbBlockEnd
0
BLOCK
5
73075
100
AcDbEntity
8
0
100
AcDbBlockBegin
2
Lejtõs_akna
70
0
10
0.
20
0.
30
0.
3
Lejt
1

0
TEXT
5
73076
100
AcDbEntity
8
Error
6
Continuous
62
1
100
AcDbText
39
0.
40
5.
10
0.
20
0.
30
0.
1
`
7
ItrW_DAT1_M2
11
0.
21
0.
31
0.
72
0.
100
AcDbText
73
0.
0
ENDBLK
5
73077
100
AcDbEntity
8
0
100
AcDbBlockEnd
0
BLOCK
5
73078
100
AcDbEntity
8
0
100
AcDbBlockBegin
2
Egetõ_kemence
70
0
10
0.
20
0.
30
0.
3
Eget
1

0
TEXT
5
73079
100
AcDbEntity
8
Error
6
Continuous
62
1
100
AcDbText
39
0.
40
5.
10
0.
20
0.
30
0.
1
a
7
ItrW_DAT1_M2
11
0.
21
0.
31
0.
72
0.
100
AcDbText
73
0.
0
ENDBLK
5
7307a
100
AcDbEntity
8
0
100
AcDbBlockEnd
0
BLOCK
5
7307b
100
AcDbEntity
8
0
100
AcDbBlockBegin
2
Dögkút__siló
70
0
10
0.
20
0.
30
0.
3
Dögkút__siló
1

0
TEXT
5
7307c
100
AcDbEntity
8
Error
6
Continuous
62
1
100
AcDbText
39
0.
40
5.
10
0.
20
0.
30
0.
1
b
7
ItrW_DAT1_M2
11
0.
21
0.
31
0.
72
0.
100
AcDbText
73
0.
0
ENDBLK
5
7307d
100
AcDbEntity
8
0
100
AcDbBlockEnd
0
BLOCK
5
7307e
100
AcDbEntity
8
0
100
AcDbBlockBegin
2
Kõkereszt_1
70
0
10
0.
20
0.
30
0.
3
K
1

0
TEXT
5
7307f
100
AcDbEntity
8
Error
6
Continuous
62
1
100
AcDbText
39
0.
40
5.
10
0.
20
0.
30
0.
1
c
7
ItrW_DAT1_M2
11
0.
21
0.
31
0.
72
0.
100
AcDbText
73
0.
0
ENDBLK
5
73080
100
AcDbEntity
8
0
100
AcDbBlockEnd
0
BLOCK
5
73081
100
AcDbEntity
8
0
100
AcDbBlockBegin
2
Kõkereszt_2
70
0
10
0.
20
0.
30
0.
3
K
1

0
TEXT
5
73082
100
AcDbEntity
8
Error
6
Continuous
62
1
100
AcDbText
39
0.
40
5.
10
0.
20
0.
30
0.
1
d
7
ItrW_DAT1_M2
11
0.
21
0.
31
0.
72
0.
100
AcDbText
73
0.
0
ENDBLK
5
73083
100
AcDbEntity
8
0
100
AcDbBlockEnd
0
BLOCK
5
73084
100
AcDbEntity
8
0
100
AcDbBlockBegin
2
Harangláb_1
70
0
10
0.
20
0.
30
0.
3
Harangláb_1
1

0
TEXT
5
73085
100
AcDbEntity
8
Error
6
Continuous
62
1
100
AcDbText
39
0.
40
5.
10
0.
20
0.
30
0.
1
e
7
ItrW_DAT1_M2
11
0.
21
0.
31
0.
72
0.
100
AcDbText
73
0.
0
ENDBLK
5
73086
100
AcDbEntity
8
0
100
AcDbBlockEnd
0
BLOCK
5
73087
100
AcDbEntity
8
0
100
AcDbBlockBegin
2
Harangláb_2
70
0
10
0.
20
0.
30
0.
3
Harangláb_2
1

0
TEXT
5
73088
100
AcDbEntity
8
Error
6
Continuous
62
1
100
AcDbText
39
0.
40
5.
10
0.
20
0.
30
0.
1
f
7
ItrW_DAT1_M2
11
0.
21
0.
31
0.
72
0.
100
AcDbText
73
0.
0
ENDBLK
5
73089
100
AcDbEntity
8
0
100
AcDbBlockEnd
0
BLOCK
5
7308a
100
AcDbEntity
8
0
100
AcDbBlockBegin
2
Sír__kripta
70
0
10
0.
20
0.
30
0.
3
Sír__kripta
1

0
TEXT
5
7308b
100
AcDbEntity
8
Error
6
Continuous
62
1
100
AcDbText
39
0.
40
5.
10
0.
20
0.
30
0.
1
g
7
ItrW_DAT1_M2
11
0.
21
0.
31
0.
72
0.
100
AcDbText
73
0.
0
ENDBLK
5
7308c
100
AcDbEntity
8
0
100
AcDbBlockEnd
0
BLOCK
5
7308d
100
AcDbEntity
8
0
100
AcDbBlockBegin
2
Közúti_azonosító
70
0
10
0.
20
0.
30
0.
3
Közúti_azonosító
1

0
TEXT
5
7308e
100
AcDbEntity
8
Error
6
Continuous
62
1
100
AcDbText
39
0.
40
5.
10
0.
20
0.
30
0.
1
h
7
ItrW_DAT1_M2
11
0.
21
0.
31
0.
72
0.
100
AcDbText
73
0.
0
ENDBLK
5
7308f
100
AcDbEntity
8
0
100
AcDbBlockEnd
0
BLOCK
5
73090
100
AcDbEntity
8
0
100
AcDbBlockBegin
2
Villamosított_vasút
70
0
10
0.
20
0.
30
0.
3
Villamosított_vasút
1

0
TEXT
5
73091
100
AcDbEntity
8
Error
6
Continuous
62
1
100
AcDbText
39
0.
40
5.
10
0.
20
0.
30
0.
1
i
7
ItrW_DAT1_M2
11
0.
21
0.
31
0.
72
0.
100
AcDbText
73
0.
0
ENDBLK
5
73092
100
AcDbEntity
8
0
100
AcDbBlockEnd
0
BLOCK
5
73093
100
AcDbEntity
8
0
100
AcDbBlockBegin
2
Bejárati_jelzõ
70
0
10
0.
20
0.
30
0.
3
Bejárati_jelz
1

0
TEXT
5
73094
100
AcDbEntity
8
Error
6
Continuous
62
1
100
AcDbText
39
0.
40
5.
10
0.
20
0.
30
0.
1
j
7
ItrW_DAT1_M2
11
0.
21
0.
31
0.
72
0.
100
AcDbText
73
0.
0
ENDBLK
5
73095
100
AcDbEntity
8
0
100
AcDbBlockEnd
0
BLOCK
5
73096
100
AcDbEntity
8
0
100
AcDbBlockBegin
2
Fogaskerekû_vasút
70
0
10
0.
20
0.
30
0.
3
Fogaskerek
1

0
TEXT
5
73097
100
AcDbEntity
8
Error
6
Continuous
62
1
100
AcDbText
39
0.
40
5.
10
0.
20
0.
30
0.
1
k
7
ItrW_DAT1_M2
11
0.
21
0.
31
0.
72
0.
100
AcDbText
73
0.
0
ENDBLK
5
73098
100
AcDbEntity
8
0
100
AcDbBlockEnd
0
BLOCK
5
73099
100
AcDbEntity
8
0
100
AcDbBlockBegin
2
Vágány_vége
70
0
10
0.
20
0.
30
0.
3
Vágány_vége
1

0
TEXT
5
7309a
100
AcDbEntity
8
Error
6
Continuous
62
1
100
AcDbText
39
0.
40
5.
10
0.
20
0.
30
0.
1
l
7
ItrW_DAT1_M2
11
0.
21
0.
31
0.
72
0.
100
AcDbText
73
0.
0
ENDBLK
5
7309b
100
AcDbEntity
8
0
100
AcDbBlockEnd
0
BLOCK
5
7309c
100
AcDbEntity
8
0
100
AcDbBlockBegin
2
Uzemanyagtöltõ_kút
70
0
10
0.
20
0.
30
0.
3
Uzemanyagtölt
1

0
TEXT
5
7309d
100
AcDbEntity
8
Error
6
Continuous
62
1
100
AcDbText
39
0.
40
5.
10
0.
20
0.
30
0.
1
m
7
ItrW_DAT1_M2
11
0.
21
0.
31
0.
72
0.
100
AcDbText
73
0.
0
ENDBLK
5
7309e
100
AcDbEntity
8
0
100
AcDbBlockEnd
0
BLOCK
5
7309f
100
AcDbEntity
8
0
100
AcDbBlockBegin
2
Ateresz
70
0
10
0.
20
0.
30
0.
3
Ateresz
1

0
TEXT
5
730a0
100
AcDbEntity
8
Error
6
Continuous
62
1
100
AcDbText
39
0.
40
5.
10
0.
20
0.
30
0.
1
n
7
ItrW_DAT1_M2
11
0.
21
0.
31
0.
72
0.
100
AcDbText
73
0.
0
ENDBLK
5
730a1
100
AcDbEntity
8
0
100
AcDbBlockEnd
0
BLOCK
5
730a2
100
AcDbEntity
8
0
100
AcDbBlockBegin
2
Segélykérõ_telefon
70
0
10
0.
20
0.
30
0.
3
Segélykér
1

0
TEXT
5
730a3
100
AcDbEntity
8
Error
6
Continuous
62
1
100
AcDbText
39
0.
40
5.
10
0.
20
0.
30
0.
1
o
7
ItrW_DAT1_M2
11
0.
21
0.
31
0.
72
0.
100
AcDbText
73
0.
0
ENDBLK
5
730a4
100
AcDbEntity
8
0
100
AcDbBlockEnd
0
BLOCK
5
730a5
100
AcDbEntity
8
0
100
AcDbBlockBegin
2
Közúti_kilométertábla
70
0
10
0.
20
0.
30
0.
3
Közúti_kilométertábla
1

0
TEXT
5
730a6
100
AcDbEntity
8
Error
6
Continuous
62
1
100
AcDbText
39
0.
40
5.
10
0.
20
0.
30
0.
1
p
7
ItrW_DAT1_M2
11
0.
21
0.
31
0.
72
0.
100
AcDbText
73
0.
0
ENDBLK
5
730a7
100
AcDbEntity
8
0
100
AcDbBlockEnd
0
BLOCK
5
730a8
100
AcDbEntity
8
0
100
AcDbBlockBegin
2
Közúti_kilométerkõ
70
0
10
0.
20
0.
30
0.
3
Közúti_kilométerk
1

0
TEXT
5
730a9
100
AcDbEntity
8
Error
6
Continuous
62
1
100
AcDbText
39
0.
40
5.
10
0.
20
0.
30
0.
1
q
7
ItrW_DAT1_M2
11
0.
21
0.
31
0.
72
0.
100
AcDbText
73
0.
0
ENDBLK
5
730aa
100
AcDbEntity
8
0
100
AcDbBlockEnd
0
BLOCK
5
730ab
100
AcDbEntity
8
0
100
AcDbBlockBegin
2
Távvezeték_tartója__alapozott_
70
0
10
0.
20
0.
30
0.
3
Távvezeték_tartója__alapozott_
1

0
TEXT
5
730ac
100
AcDbEntity
8
Error
6
Continuous
62
1
100
AcDbText
39
0.
40
5.
10
0.
20
0.
30
0.
1
r
7
ItrW_DAT1_M2
11
0.
21
0.
31
0.
72
0.
100
AcDbText
73
0.
0
ENDBLK
5
730ad
100
AcDbEntity
8
0
100
AcDbBlockEnd
0
BLOCK
5
730ae
100
AcDbEntity
8
0
100
AcDbBlockBegin
2
Távvezeték_tartója
70
0
10
0.
20
0.
30
0.
3
Távvezeték_tartója
1

0
TEXT
5
730af
100
AcDbEntity
8
Error
6
Continuous
62
1
100
AcDbText
39
0.
40
5.
10
0.
20
0.
30
0.
1
s
7
ItrW_DAT1_M2
11
0.
21
0.
31
0.
72
0.
100
AcDbText
73
0.
0
ENDBLK
5
730b0
100
AcDbEntity
8
0
100
AcDbBlockEnd
0
BLOCK
5
730b1
100
AcDbEntity
8
0
100
AcDbBlockBegin
2
Elektromos_vez__nyilai
70
0
10
0.
20
0.
30
0.
3
Elektromos_vez__nyilai
1

0
TEXT
5
730b2
100
AcDbEntity
8
Error
6
Continuous
62
1
100
AcDbText
39
0.
40
5.
10
-7.4505805969238281e-008
20
0.
30
0.
1
t
7
ItrW_DAT1_M2
11
-7.4505805969238281e-008
21
0.
31
0.
72
0.
100
AcDbText
73
0.
0
ENDBLK
5
730b3
100
AcDbEntity
8
0
100
AcDbBlockEnd
0
BLOCK
5
730b4
100
AcDbEntity
8
0
100
AcDbBlockBegin
2
Földelõ_kút
70
0
10
0.
20
0.
30
0.
3
Földel
1

0
TEXT
5
730b5
100
AcDbEntity
8
Error
6
Continuous
62
1
100
AcDbText
39
0.
40
5.
10
0.
20
0.
30
0.
1
u
7
ItrW_DAT1_M2
11
0.
21
0.
31
0.
72
0.
100
AcDbText
73
0.
0
ENDBLK
5
730b6
100
AcDbEntity
8
0
100
AcDbBlockEnd
0
BLOCK
5
730b7
100
AcDbEntity
8
0
100
AcDbBlockBegin
2
Drótkötélpálya
70
0
10
0.
20
0.
30
0.
3
Drótkötélpálya
1

0
TEXT
5
730b8
100
AcDbEntity
8
Error
6
Continuous
62
1
100
AcDbText
39
0.
40
5.
10
0.
20
0.
30
0.
1
v
7
ItrW_DAT1_M2
11
0.
21
0.
31
0.
72
0.
100
AcDbText
73
0.
0
ENDBLK
5
730b9
100
AcDbEntity
8
0
100
AcDbBlockEnd
0
BLOCK
5
730ba
100
AcDbEntity
8
0
100
AcDbBlockBegin
2
Olaj-_és_gázkút
70
0
10
0.
20
0.
30
0.
3
Olaj-_és_gázkút
1

0
TEXT
5
730bb
100
AcDbEntity
8
Error
6
Continuous
62
1
100
AcDbText
39
0.
40
5.
10
0.
20
0.
30
0.
1
w
7
ItrW_DAT1_M2
11
0.
21
0.
31
0.
72
0.
100
AcDbText
73
0.
0
ENDBLK
5
730bc
100
AcDbEntity
8
0
100
AcDbBlockEnd
0
BLOCK
5
730bd
100
AcDbEntity
8
0
100
AcDbBlockBegin
2
Transzformátor
70
0
10
0.
20
0.
30
0.
3
Transzformátor
1

0
TEXT
5
730be
100
AcDbEntity
8
Error
6
Continuous
62
1
100
AcDbText
39
0.
40
5.
10
0.
20
0.
30
0.
1
x
7
ItrW_DAT1_M2
11
0.
21
0.
31
0.
72
0.
100
AcDbText
73
0.
0
ENDBLK
5
730bf
100
AcDbEntity
8
0
100
AcDbBlockEnd
0
BLOCK
5
730c0
100
AcDbEntity
8
0
100
AcDbBlockBegin
2
Antenna_rögzítõ_pontja
70
0
10
0.
20
0.
30
0.
3
Antenna_rögzít
1

0
TEXT
5
730c1
100
AcDbEntity
8
Error
6
Continuous
62
1
100
AcDbText
39
0.
40
5.
10
0.
20
0.
30
0.
1
y
7
ItrW_DAT1_M2
11
0.
21
0.
31
0.
72
0.
100
AcDbText
73
0.
0
ENDBLK
5
730c2
100
AcDbEntity
8
0
100
AcDbBlockEnd
0
BLOCK
5
730c3
100
AcDbEntity
8
0
100
AcDbBlockBegin
2
Antenna
70
0
10
0.
20
0.
30
0.
3
Antenna
1

0
TEXT
5
730c4
100
AcDbEntity
8
Error
6
Continuous
62
1
100
AcDbText
39
0.
40
5.
10
0.
20
0.
30
0.
1
z
7
ItrW_DAT1_M2
11
0.
21
0.
31
0.
72
0.
100
AcDbText
73
0.
0
ENDBLK
5
730c5
100
AcDbEntity
8
0
100
AcDbBlockEnd
0
BLOCK
5
730c6
100
AcDbEntity
8
0
100
AcDbBlockBegin
2
Irányjelzõ_tábla
70
0
10
0.
20
0.
30
0.
3
Irányjelz
1

0
TEXT
5
730c7
100
AcDbEntity
8
Error
6
Continuous
62
1
100
AcDbText
39
0.
40
5.
10
0.
20
0.
30
0.
1
{
7
ItrW_DAT1_M2
11
0.
21
0.
31
0.
72
0.
100
AcDbText
73
0.
0
ENDBLK
5
730c8
100
AcDbEntity
8
0
100
AcDbBlockEnd
0
BLOCK
5
730c9
100
AcDbEntity
8
0
100
AcDbBlockBegin
2
Szaglócsõ
70
0
10
0.
20
0.
30
0.
3
Szaglócs
1

0
TEXT
5
730ca
100
AcDbEntity
8
Error
6
Continuous
62
1
100
AcDbText
39
0.
40
5.
10
0.
20
0.
30
0.
1
|
7
ItrW_DAT1_M2
11
0.
21
0.
31
0.
72
0.
100
AcDbText
73
0.
0
ENDBLK
5
730cb
100
AcDbEntity
8
0
100
AcDbBlockEnd
0
BLOCK
5
730cc
100
AcDbEntity
8
0
100
AcDbBlockBegin
2
Transzformátorház
70
0
10
0.
20
0.
30
0.
3
Transzformátorház
1

0
TEXT
5
730cd
100
AcDbEntity
8
Error
6
Continuous
62
1
100
AcDbText
39
0.
40
5.
10
0.
20
0.
30
0.
1
}
7
ItrW_DAT1_M2
11
0.
21
0.
31
0.
72
0.
100
AcDbText
73
0.
0
ENDBLK
5
730ce
100
AcDbEntity
8
0
100
AcDbBlockEnd
0
BLOCK
5
730cf
100
AcDbEntity
8
0
100
AcDbBlockBegin
2
Tûzcsap
70
0
10
0.
20
0.
30
0.
3
T
1

0
TEXT
5
730d0
100
AcDbEntity
8
Error
6
Continuous
62
1
100
AcDbText
39
0.
40
5.
10
0.
20
0.
30
0.
1
~
7
ItrW_DAT1_M2
11
0.
21
0.
31
0.
72
0.
100
AcDbText
73
0.
0
ENDBLK
5
730d1
100
AcDbEntity
8
0
100
AcDbBlockEnd
0
BLOCK
5
730d2
100
AcDbEntity
8
0
100
AcDbBlockBegin
2
Zsilip
70
0
10
0.
20
0.
30
0.
3
Zsilip
1

0
TEXT
5
730d3
100
AcDbEntity
8
Error
6
Continuous
62
1
100
AcDbText
39
0.
40
5.
10
0.
20
0.
30
0.
1
Ç
7
ItrW_DAT1_M2
11
0.
21
0.
31
0.
72
0.
100
AcDbText
73
0.
0
ENDBLK
5
730d4
100
AcDbEntity
8
0
100
AcDbBlockEnd
0
BLOCK
5
730d5
100
AcDbEntity
8
0
100
AcDbBlockBegin
2
Vízmérce
70
0
10
0.
20
0.
30
0.
3
Vízmérce
1

0
TEXT
5
730d6
100
AcDbEntity
8
Error
6
Continuous
62
1
100
AcDbText
39
0.
40
5.
10
0.
20
0.
30
0.
1

7
ItrW_DAT1_M2
11
0.
21
0.
31
0.
72
0.
100
AcDbText
73
0.
0
ENDBLK
5
730d7
100
AcDbEntity
8
0
100
AcDbBlockEnd
0
BLOCK
5
730d8
100
AcDbEntity
8
0
100
AcDbBlockBegin
2
Forrás
70
0
10
0.
20
0.
30
0.
3
Forrás
1

0
TEXT
5
730d9
100
AcDbEntity
8
Error
6
Continuous
62
1
100
AcDbText
39
0.
40
5.
10
0.
20
0.
30
0.
1

7
ItrW_DAT1_M2
11
0.
21
0.
31
0.
72
0.
100
AcDbText
73
0.
0
ENDBLK
5
730da
100
AcDbEntity
8
0
100
AcDbBlockEnd
0
BLOCK
5
730db
100
AcDbEntity
8
0
100
AcDbBlockBegin
2
Foglalt_forrás
70
0
10
0.
20
0.
30
0.
3
Foglalt_forrás
1

0
TEXT
5
730dc
100
AcDbEntity
8
Error
6
Continuous
62
1
100
AcDbText
39
0.
40
5.
10
0.
20
0.
30
0.
1

7
ItrW_DAT1_M2
11
0.
21
0.
31
0.
72
0.
100
AcDbText
73
0.
0
ENDBLK
5
730dd
100
AcDbEntity
8
0
100
AcDbBlockEnd
0
BLOCK
5
730de
100
AcDbEntity
8
0
100
AcDbBlockBegin
2
Közkút__artézi_kút
70
0
10
0.
20
0.
30
0.
3
Közkút__artézi_kút
1

0
TEXT
5
730df
100
AcDbEntity
8
Error
6
Continuous
62
1
100
AcDbText
39
0.
40
5.
10
0.
20
0.
30
0.
1

7
ItrW_DAT1_M2
11
0.
21
0.
31
0.
72
0.
100
AcDbText
73
0.
0
ENDBLK
5
730e0
100
AcDbEntity
8
0
100
AcDbBlockEnd
0
BLOCK
5
730e1
100
AcDbEntity
8
0
100
AcDbBlockBegin
2
Gémeskút
70
0
10
0.
20
0.
30
0.
3
Gémeskút
1

0
TEXT
5
730e2
100
AcDbEntity
8
Error
6
Continuous
62
1
100
AcDbText
39
0.
40
5.
10
0.
20
0.
30
0.
1

7
ItrW_DAT1_M2
11
0.
21
0.
31
0.
72
0.
100
AcDbText
73
0.
0
ENDBLK
5
730e3
100
AcDbEntity
8
0
100
AcDbBlockEnd
0
BLOCK
5
730e4
100
AcDbEntity
8
0
100
AcDbBlockBegin
2
Szökõkút__díszkút
70
0
10
0.
20
0.
30
0.
3
Szök
1

0
TEXT
5
730e5
100
AcDbEntity
8
Error
6
Continuous
62
1
100
AcDbText
39
0.
40
5.
10
0.
20
0.
30
0.
1

7
ItrW_DAT1_M2
11
0.
21
0.
31
0.
72
0.
100
AcDbText
73
0.
0
ENDBLK
5
730e6
100
AcDbEntity
8
0
100
AcDbBlockEnd
0
BLOCK
5
730e7
100
AcDbEntity
8
0
100
AcDbBlockBegin
2
Egyéb_kút
70
0
10
0.
20
0.
30
0.
3
Egyéb_kút
1

0
TEXT
5
730e8
100
AcDbEntity
8
Error
6
Continuous
62
1
100
AcDbText
39
0.
40
5.
10
0.
20
0.
30
0.
1

7
ItrW_DAT1_M2
11
0.
21
0.
31
0.
72
0.
100
AcDbText
73
0.
0
ENDBLK
5
730e9
100
AcDbEntity
8
0
100
AcDbBlockEnd
0
BLOCK
5
730ea
100
AcDbEntity
8
0
100
AcDbBlockBegin
2
Hidroglóbusz
70
0
10
0.
20
0.
30
0.
3
Hidroglóbusz
1

0
TEXT
5
730eb
100
AcDbEntity
8
Error
6
Continuous
62
1
100
AcDbText
39
0.
40
5.
10
0.
20
0.
30
0.
1

7
ItrW_DAT1_M2
11
0.
21
0.
31
0.
72
0.
100
AcDbText
73
0.
0
ENDBLK
5
730ec
100
AcDbEntity
8
0
100
AcDbBlockEnd
0
BLOCK
5
730ed
100
AcDbEntity
8
0
100
AcDbBlockBegin
2
Aknafedlap__kör_
70
0
10
0.
20
0.
30
0.
3
Aknafedlap__kör_
1

0
TEXT
5
730ee
100
AcDbEntity
8
Error
6
Continuous
62
1
100
AcDbText
39
0.
40
5.
10
0.
20
0.
30
0.
1

7
ItrW_DAT1_M2
11
0.
21
0.
31
0.
72
0.
100
AcDbText
73
0.
0
ENDBLK
5
730ef
100
AcDbEntity
8
0
100
AcDbBlockEnd
0
BLOCK
5
730f0
100
AcDbEntity
8
0
100
AcDbBlockBegin
2
Aknafedlap__négyzet_
70
0
10
0.
20
0.
30
0.
3
Aknafedlap__négyzet_
1

0
TEXT
5
730f1
100
AcDbEntity
8
Error
6
Continuous
62
1
100
AcDbText
39
0.
40
5.
10
0.
20
0.
30
0.
1

7
ItrW_DAT1_M2
11
0.
21
0.
31
0.
72
0.
100
AcDbText
73
0.
0
ENDBLK
5
730f2
100
AcDbEntity
8
0
100
AcDbBlockEnd
0
BLOCK
5
730f3
100
AcDbEntity
8
0
100
AcDbBlockBegin
2
Eséstüske
70
0
10
0.
20
0.
30
0.
3
Eséstüske
1

0
TEXT
5
730f4
100
AcDbEntity
8
V_ALAPPONT
6
Continuous
62
1
100
AcDbText
39
0.
40
5.
10
0.
20
0.
30
0.
1

7
ItrW_DAT1_M2
11
0.
21
0.
31
0.
72
0.
100
AcDbText
73
0.
0
ENDBLK
5
730f5
100
AcDbEntity
8
0
100
AcDbBlockEnd
0
BLOCK
5
730f6
100
AcDbEntity
8
0
100
AcDbBlockBegin
2
Rézsû_____1m_
70
0
10
0.
20
0.
30
0.
3
Rézs
1

0
TEXT
5
730f7
100
AcDbEntity
8
V_ALAPPONT
6
Continuous
62
1
100
AcDbText
39
0.
40
5.
10
0.
20
0.
30
0.
1

7
ItrW_DAT1_M2
11
0.
21
0.
31
0.
72
0.
100
AcDbText
73
0.
0
ENDBLK
5
730f8
100
AcDbEntity
8
0
100
AcDbBlockEnd
0
BLOCK
5
730f9
100
AcDbEntity
8
0
100
AcDbBlockBegin
2
Karsztlyuk
70
0
10
0.
20
0.
30
0.
3
Karsztlyuk
1

0
TEXT
5
730fa
100
AcDbEntity
8
V_ALAPPONT
6
Continuous
62
1
100
AcDbText
39
0.
40
5.
10
0.
20
0.
30
0.
1

7
ItrW_DAT1_M2
11
0.
21
0.
31
0.
72
0.
100
AcDbText
73
0.
0
ENDBLK
5
730fb
100
AcDbEntity
8
0
100
AcDbBlockEnd
0
BLOCK
5
730fc
100
AcDbEntity
8
0
100
AcDbBlockBegin
2
Sziklarajz
70
0
10
0.
20
0.
30
0.
3
Sziklarajz
1

0
TEXT
5
730fd
100
AcDbEntity
8
V_ALAPPONT
6
Continuous
62
1
100
AcDbText
39
0.
40
5.
10
0.
20
0.
30
0.
1

7
ItrW_DAT1_M2
11
0.
21
0.
31
0.
72
0.
100
AcDbText
73
0.
0
ENDBLK
5
730fe
100
AcDbEntity
8
0
100
AcDbBlockEnd
0
BLOCK
5
730ff
100
AcDbEntity
8
0
100
AcDbBlockBegin
2
Homok-_és_földomladék
70
0
10
0.
20
0.
30
0.
3
Homok-_és_földomladék
1

0
TEXT
5
73100
100
AcDbEntity
8
V_ALAPPONT
6
Continuous
62
1
100
AcDbText
39
0.
40
5.
10
0.
20
0.
30
0.
1

7
ItrW_DAT1_M2
11
0.
21
0.
31
0.
72
0.
100
AcDbText
73
0.
0
ENDBLK
5
73101
100
AcDbEntity
8
0
100
AcDbBlockEnd
0
BLOCK
5
73102
100
AcDbEntity
8
0
100
AcDbBlockBegin
2
Kõ-_és_kavicsomladék
70
0
10
0.
20
0.
30
0.
3
K
1

0
TEXT
5
73103
100
AcDbEntity
8
V_ALAPPONT
6
Continuous
62
1
100
AcDbText
39
0.
40
5.
10
0.
20
0.
30
0.
1

7
ItrW_DAT1_M2
11
0.
21
0.
31
0.
72
0.
100
AcDbText
73
0.
0
ENDBLK
5
73104
100
AcDbEntity
8
0
100
AcDbBlockEnd
0
BLOCK
5
73105
100
AcDbEntity
8
0
100
AcDbBlockBegin
2
Kótált_pont
70
0
10
0.
20
0.
30
0.
3
Kótált_pont
1

0
TEXT
5
73106
100
AcDbEntity
8
V_ALAPPONT
6
Continuous
62
1
100
AcDbText
39
0.
40
5.
10
0.
20
0.
30
0.
1

7
ItrW_DAT1_M2
11
0.
21
0.
31
0.
72
0.
100
AcDbText
73
0.
0
ENDBLK
5
73107
100
AcDbEntity
8
0
100
AcDbBlockEnd
0
BLOCK
5
73108
100
AcDbEntity
8
0
100
AcDbBlockBegin
2
Nullkör_1_mm
70
0
10
0.
20
0.
30
0.
3
Nullkör_1_mm
1

0
TEXT
5
73109
100
AcDbEntity
8
V_ALAPPONT
6
Continuous
62
1
100
AcDbText
39
0.
40
2.6700000762939453
10
1.9999999552965164e-002
20
-4.4200000762939453
30
0.
1
°
7
Arial
11
1.9999999552965164e-002
21
-4.4200000762939453
31
0.
72
0.
100
AcDbText
73
0.
0
ENDBLK
5
7310a
100
AcDbEntity
8
0
100
AcDbBlockEnd
0
BLOCK
5
7310b
100
AcDbEntity
8
0
100
AcDbBlockBegin
2
Nullkör_3_mm
70
0
10
0.
20
0.
30
0.
3
Nullkör_3_mm
1

0
TEXT
5
7310c
100
AcDbEntity
8
V_ALAPPONT
6
Continuous
62
1
100
AcDbText
39
0.
40
7.9499998092651367
10
5.9999998658895493e-002
20
-13.159999847412109
30
0.
1
°
7
Arial
11
5.9999998658895493e-002
21
-13.159999847412109
31
0.
72
0.
100
AcDbText
73
0.
0
ENDBLK
5
7310d
100
AcDbEntity
8
0
100
AcDbBlockEnd
0
BLOCK
5
7310e
100
AcDbEntity
8
0
100
AcDbBlockBegin
2
Kereszt_1_5_mm
70
0
10
0.
20
0.
30
0.
3
Kereszt_1_5_mm
1

0
TEXT
5
7310f
100
AcDbEntity
8
V_ALAPPONT
6
Continuous
62
1
100
AcDbText
39
0.
40
2.2699999809265137
10
0.
20
-2.2400000095367432
30
0.
1
+
7
Arial
11
0.
21
-2.2400000095367432
31
0.
72
0.
100
AcDbText
73
0.
0
ENDBLK
5
73110
100
AcDbEntity
8
0
100
AcDbBlockEnd
0
BLOCK
5
73111
100
AcDbEntity
8
0
100
AcDbBlockBegin
2
Kereszt_3_mm
70
0
10
0.
20
0.
30
0.
3
Kereszt_3_mm
1

0
TEXT
5
73112
100
AcDbEntity
8
V_ALAPPONT
6
Continuous
62
1
100
AcDbText
39
0.
40
4.5199999809265137
10
1.9999999552965164e-002
20
-4.4600000381469727
30
0.
1
+
7
Arial
11
1.9999999552965164e-002
21
-4.4600000381469727
31
0.
72
0.
100
AcDbText
73
0.
0
ENDBLK
5
73113
100
AcDbEntity
8
0
100
AcDbBlockEnd
0
BLOCK
5
73114
100
AcDbEntity
8
0
100
AcDbBlockBegin
2
Telikör_1_5_mm
70
0
10
0.
20
0.
30
0.
3
Telikör_1_5_mm
1

0
TEXT
5
73115
100
AcDbEntity
8
V_ALAPPONT
6
Continuous
62
1
100
AcDbText
39
0.
40
4.3000001907348633
10
0.
20
-4.2199997901916504
30
0.
1

7
Arial
11
0.
21
-4.2199997901916504
31
0.
72
0.
100
AcDbText
73
0.
0
ENDBLK
5
73116
100
AcDbEntity
8
0
100
AcDbBlockEnd
0
BLOCK
5
73117
100
AcDbEntity
8
0
100
AcDbBlockBegin
2
Telikör_3_mm
70
0
10
0.
20
0.
30
0.
3
Telikör_3_mm
1

0
TEXT
5
73118
100
AcDbEntity
8
V_ALAPPONT
6
Continuous
62
1
100
AcDbText
39
0.
40
8.630000114440918
10
0.
20
-8.4399995803833008
30
0.
1

7
Arial
11
0.
21
-8.4399995803833008
31
0.
72
0.
100
AcDbText
73
0.
0
ENDBLK
5
73119
100
AcDbEntity
8
0
100
AcDbBlockEnd
0
BLOCK
5
7311a
100
AcDbEntity
8
0
100
AcDbBlockBegin
2
Részletpont__karó_
70
0
10
0.
20
0.
30
0.
3
Részletpont__karó_
1

0
CIRCLE
5
7311b
100
AcDbEntity
8
0
6
CONTINUOUS
62
1
100
AcDbCircle
39
0.
10
0.
20
0.
30
0.
40
0.5
0
CIRCLE
5
7311c
100
AcDbEntity
8
0
6
CONTINUOUS
62
1
100
AcDbCircle
39
0.
10
0.
20
0.
30
0.
40
0.
0
CIRCLE
5
7311d
100
AcDbEntity
8
0
6
CONTINUOUS
62
1
100
AcDbCircle
39
0.
10
0.
20
0.
30
0.
40
5.0000000000000003e-002
0
LINE
5
7311e
100
AcDbEntity
8
0
6
CONTINUOUS
62
1
100
AcDbLine
39
0.
10
0.
20
0.5
30
0.
11
0.
21
1.
31
0.
0
ENDBLK
5
7311f
100
AcDbEntity
8
0
100
AcDbBlockEnd
0
BLOCK
5
73120
100
AcDbEntity
8
0
100
AcDbBlockBegin
2
Településhatár__fél_jel_
70
0
10
0.
20
0.
30
0.
3
Településhatár__fél_jel_
1

0
CIRCLE
5
73121
100
AcDbEntity
8
0
6
CONTINUOUS
62
1
100
AcDbCircle
39
0.
10
0.
20
0.
30
0.
40
0.10000000000000001
0
CIRCLE
5
73122
100
AcDbEntity
8
0
6
CONTINUOUS
62
1
100
AcDbCircle
39
0.
10
0.
20
0.
30
0.
40
0.10000000000000001
0
LINE
5
73123
100
AcDbEntity
8
0
6
CONTINUOUS
62
1
100
AcDbLine
39
0.
10
0.
20
0.10000000000000001
30
0.
11
0.
21
-0.10000000000000001
31
0.
0
LINE
5
73124
100
AcDbEntity
8
0
6
CONTINUOUS
62
1
100
AcDbLine
39
0.
10
-5.0000000000000003e-002
20
-0.10000000000000001
30
0.
11
-5.0000000000000003e-002
21
0.10000000000000001
31
0.
0
LINE
5
73125
100
AcDbEntity
8
0
6
CONTINUOUS
62
1
100
AcDbLine
39
0.
10
5.0000000000000003e-002
20
0.10000000000000001
30
0.
11
5.0000000000000003e-002
21
-0.10000000000000001
31
0.
0
LINE
5
73126
100
AcDbEntity
8
0
6
CONTINUOUS
62
1
100
AcDbLine
39
0.
10
0.94999999999999996
20
-0.10000000000000001
30
0.
11
0.94999999999999996
21
0.10000000000000001
31
0.
0
LINE
5
73127
100
AcDbEntity
8
0
6
CONTINUOUS
62
1
100
AcDbLine
39
0.
10
1.
20
0.10000000000000001
30
0.
11
1.
21
-0.10000000000000001
31
0.
0
LINE
5
73128
100
AcDbEntity
8
0
6
CONTINUOUS
62
1
100
AcDbLine
39
0.
10
1.05
20
-0.10000000000000001
30
0.
11
1.05
21
0.10000000000000001
31
0.
0
LINE
5
73129
100
AcDbEntity
8
0
6
CONTINUOUS
62
1
100
AcDbLine
39
0.
10
2.
20
0.
30
0.
11
6.
21
0.
31
0.
0
LINE
5
7312a
100
AcDbEntity
8
0
6
CONTINUOUS
62
1
100
AcDbLine
39
0.
10
6.
20
-5.0000000000000003e-002
30
0.
11
2.
21
-5.0000000000000003e-002
31
0.
0
LINE
5
7312b
100
AcDbEntity
8
0
6
CONTINUOUS
62
1
100
AcDbLine
39
0.
10
2.
20
-0.10000000000000001
30
0.
11
2.
21
0.10000000000000001
31
0.
0
LINE
5
7312c
100
AcDbEntity
8
0
6
CONTINUOUS
62
1
100
AcDbLine
39
0.
10
2.
20
0.10000000000000001
30
0.
11
6.
21
0.10000000000000001
31
0.
0
LINE
5
7312d
100
AcDbEntity
8
0
6
CONTINUOUS
62
1
100
AcDbLine
39
0.
10
6.
20
0.10000000000000001
30
0.
11
6.
21
-0.10000000000000001
31
0.
0
LINE
5
7312e
100
AcDbEntity
8
0
6
CONTINUOUS
62
1
100
AcDbLine
39
0.
10
6.
20
-0.10000000000000001
30
0.
11
2.
21
-0.10000000000000001
31
0.
0
LINE
5
7312f
100
AcDbEntity
8
0
6
CONTINUOUS
62
1
100
AcDbLine
39
0.
10
2.
20
5.0000000000000003e-002
30
0.
11
6.
21
5.0000000000000003e-002
31
0.
0
ENDBLK
5
73130
100
AcDbEntity
8
0
100
AcDbBlockEnd
0
BLOCK
5
73131
100
AcDbEntity
8
0
100
AcDbBlockBegin
2
Belterület_határ__fél_jel_
70
0
10
0.
20
0.
30
0.
3
Belterület_határ__fél_jel_
1

0
CIRCLE
5
73132
100
AcDbEntity
8
0
6
CONTINUOUS
62
1
100
AcDbCircle
39
0.
10
0.
20
0.
30
0.
40
0.10000000000000001
0
LINE
5
73133
100
AcDbEntity
8
0
6
CONTINUOUS
62
1
100
AcDbLine
39
0.
10
0.45000000000000001
20
0.10000000000000001
30
0.
11
0.45000000000000001
21
-0.10000000000000001
31
0.
0
LINE
5
73134
100
AcDbEntity
8
0
6
CONTINUOUS
62
1
100
AcDbLine
39
0.
10
0.5
20
-0.10000000000000001
30
0.
11
0.5
21
0.10000000000000001
31
0.
0
LINE
5
73135
100
AcDbEntity
8
0
6
CONTINUOUS
62
1
100
AcDbLine
39
0.
10
0.55000000000000004
20
0.10000000000000001
30
0.
11
0.55000000000000004
21
-0.10000000000000001
31
0.
0
LINE
5
73136
100
AcDbEntity
8
0
6
CONTINUOUS
62
1
100
AcDbLine
39
0.
10
1.5
20
-0.10000000000000001
30
0.
11
1.5
21
0.10000000000000001
31
0.
0
LINE
5
73137
100
AcDbEntity
8
0
6
CONTINUOUS
62
1
100
AcDbLine
39
0.
10
1.5
20
0.10000000000000001
30
0.
11
6.5
21
0.10000000000000001
31
0.
0
LINE
5
73138
100
AcDbEntity
8
0
6
CONTINUOUS
62
1
100
AcDbLine
39
0.
10
6.5
20
0.10000000000000001
30
0.
11
6.5
21
-0.10000000000000001
31
0.
0
LINE
5
73139
100
AcDbEntity
8
0
6
CONTINUOUS
62
1
100
AcDbLine
39
0.
10
6.5
20
-0.10000000000000001
30
0.
11
1.5
21
-0.10000000000000001
31
0.
0
LINE
5
7313a
100
AcDbEntity
8
0
6
CONTINUOUS
62
1
100
AcDbLine
39
0.
10
1.55
20
-5.0000000000000003e-002
30
0.
11
1.55
21
5.0000000000000003e-002
31
0.
0
LINE
5
7313b
100
AcDbEntity
8
0
6
CONTINUOUS
62
1
100
AcDbLine
39
0.
10
1.55
20
5.0000000000000003e-002
30
0.
11
6.4500000000000002
21
5.0000000000000003e-002
31
0.
0
LINE
5
7313c
100
AcDbEntity
8
0
6
CONTINUOUS
62
1
100
AcDbLine
39
0.
10
6.4500000000000002
20
5.0000000000000003e-002
30
0.
11
6.4500000000000002
21
-5.0000000000000003e-002
31
0.
0
LINE
5
7313d
100
AcDbEntity
8
0
6
CONTINUOUS
62
1
100
AcDbLine
39
0.
10
6.4500000000000002
20
-5.0000000000000003e-002
30
0.
11
1.55
21
-5.0000000000000003e-002
31
0.
0
LINE
5
7313e
100
AcDbEntity
8
0
6
CONTINUOUS
62
1
100
AcDbLine
39
0.
10
1.6000000000000001
20
0.
30
0.
11
6.4000000000000004
21
0.
31
0.
0
ENDBLK
5
7313f
100
AcDbEntity
8
0
100
AcDbBlockEnd
0
BLOCK
5
73140
100
AcDbEntity
8
0
100
AcDbBlockBegin
2
Zártkert_határ__fél_jel_
70
0
10
0.
20
0.
30
0.
3
Zártkert_határ__fél_jel_
1

0
CIRCLE
5
73141
100
AcDbEntity
8
0
6
CONTINUOUS
62
1
100
AcDbCircle
39
0.
10
0.
20
0.
30
0.
40
0.10000000000000001
0
CIRCLE
5
73142
100
AcDbEntity
8
0
6
CONTINUOUS
62
1
100
AcDbCircle
39
0.
10
0.
20
0.
30
0.
40
0.10000000000000001
0
LINE
5
73143
100
AcDbEntity
8
0
6
CONTINUOUS
62
1
100
AcDbLine
39
0.
10
0.45000000000000001
20
0.10000000000000001
30
0.
11
0.45000000000000001
21
-0.10000000000000001
31
0.
0
LINE
5
73144
100
AcDbEntity
8
0
6
CONTINUOUS
62
1
100
AcDbLine
39
0.
10
0.5
20
-0.10000000000000001
30
0.
11
0.5
21
0.10000000000000001
31
0.
0
LINE
5
73145
100
AcDbEntity
8
0
6
CONTINUOUS
62
1
100
AcDbLine
39
0.
10
0.55000000000000004
20
0.10000000000000001
30
0.
11
0.55000000000000004
21
-0.10000000000000001
31
0.
0
LINE
5
73146
100
AcDbEntity
8
0
6
CONTINUOUS
62
1
100
AcDbLine
39
0.
10
1.45
20
-0.10000000000000001
30
0.
11
1.45
21
0.10000000000000001
31
0.
0
LINE
5
73147
100
AcDbEntity
8
0
6
CONTINUOUS
62
1
100
AcDbLine
39
0.
10
1.5
20
0.10000000000000001
30
0.
11
1.5
21
-0.10000000000000001
31
0.
0
LINE
5
73148
100
AcDbEntity
8
0
6
CONTINUOUS
62
1
100
AcDbLine
39
0.
10
1.55
20
-0.10000000000000001
30
0.
11
1.55
21
0.10000000000000001
31
0.
0
LINE
5
73149
100
AcDbEntity
8
0
6
CONTINUOUS
62
1
100
AcDbLine
39
0.
10
2.5
20
0.
30
0.
11
7.5
21
0.
31
0.
0
LINE
5
7314a
100
AcDbEntity
8
0
6
CONTINUOUS
62
1
100
AcDbLine
39
0.
10
7.5
20
5.0000000000000003e-002
30
0.
11
2.5
21
5.0000000000000003e-002
31
0.
0
LINE
5
7314b
100
AcDbEntity
8
0
6
CONTINUOUS
62
1
100
AcDbLine
39
0.
10
2.5
20
0.10000000000000001
30
0.
11
2.5
21
-0.10000000000000001
31
0.
0
LINE
5
7314c
100
AcDbEntity
8
0
6
CONTINUOUS
62
1
100
AcDbLine
39
0.
10
2.5
20
-0.10000000000000001
30
0.
11
7.5
21
-0.10000000000000001
31
0.
0
LINE
5
7314d
100
AcDbEntity
8
0
6
CONTINUOUS
62
1
100
AcDbLine
39
0.
10
7.5
20
-0.10000000000000001
30
0.
11
7.5
21
0.10000000000000001
31
0.
0
LINE
5
7314e
100
AcDbEntity
8
0
6
CONTINUOUS
62
1
100
AcDbLine
39
0.
10
7.5
20
0.10000000000000001
30
0.
11
2.5
21
0.10000000000000001
31
0.
0
LINE
5
7314f
100
AcDbEntity
8
0
6
CONTINUOUS
62
1
100
AcDbLine
39
0.
10
2.5
20
-5.0000000000000003e-002
30
0.
11
7.5
21
-5.0000000000000003e-002
31
0.
0
ENDBLK
5
73150
100
AcDbEntity
8
0
100
AcDbBlockEnd
0
BLOCK
5
73151
100
AcDbEntity
8
0
100
AcDbBlockBegin
2
Részletpont__csap_
70
0
10
0.
20
0.
30
0.
3
Részletpont__csap_
1

0
CIRCLE
5
73152
100
AcDbEntity
8
0
6
CONTINUOUS
62
1
100
AcDbCircle
39
0.
10
0.
20
0.
30
0.
40
0.5
0
CIRCLE
5
73153
100
AcDbEntity
8
0
6
CONTINUOUS
62
1
100
AcDbCircle
39
0.
10
0.
20
0.
30
0.
40
0.
0
CIRCLE
5
73154
100
AcDbEntity
8
0
6
CONTINUOUS
62
1
100
AcDbCircle
39
0.
10
0.
20
0.
30
0.
40
5.0000000000000003e-002
0
LINE
5
73155
100
AcDbEntity
8
0
6
CONTINUOUS
62
1
100
AcDbLine
39
0.
10
0.
20
0.5
30
0.
11
0.
21
1.
31
0.
0
LINE
5
73156
100
AcDbEntity
8
0
6
CONTINUOUS
62
1
100
AcDbLine
39
0.
10
-0.5
20
1.
30
0.
11
0.5
21
1.
31
0.
0
ENDBLK
5
73157
100
AcDbEntity
8
0
100
AcDbBlockEnd
0
BLOCK
5
73158
100
AcDbEntity
8
0
100
AcDbBlockBegin
2
Részletpont__egyéb__
70
0
10
0.
20
0.
30
0.
3
Részletpont__egyéb__
1

0
CIRCLE
5
73159
100
AcDbEntity
8
0
6
CONTINUOUS
62
1
100
AcDbCircle
39
0.
10
0.
20
0.
30
0.
40
0.
0
CIRCLE
5
7315a
100
AcDbEntity
8
0
6
CONTINUOUS
62
1
100
AcDbCircle
39
0.
10
0.
20
0.
30
0.
40
0.5
0
CIRCLE
5
7315b
100
AcDbEntity
8
0
6
CONTINUOUS
62
1
100
AcDbCircle
39
0.
10
0.
20
0.
30
0.
40
0.40000000000000002
0
CIRCLE
5
7315c
100
AcDbEntity
8
0
6
CONTINUOUS
62
1
100
AcDbCircle
39
0.
10
0.
20
0.
30
0.
40
0.29999999999999999
0
CIRCLE
5
7315d
100
AcDbEntity
8
0
6
CONTINUOUS
62
1
100
AcDbCircle
39
0.
10
0.
20
0.
30
0.
40
0.20000000000000001
0
CIRCLE
5
7315e
100
AcDbEntity
8
0
6
CONTINUOUS
62
1
100
AcDbCircle
39
0.
10
0.
20
0.
30
0.
40
0.10000000000000001
0
CIRCLE
5
7315f
100
AcDbEntity
8
0
6
CONTINUOUS
62
1
100
AcDbCircle
39
0.
10
0.
20
0.
30
0.
40
5.0000000000000003e-002
0
ENDBLK
5
73160
100
AcDbEntity
8
0
100
AcDbBlockEnd
0
BLOCK
5
73161
100
AcDbEntity
8
0
100
AcDbBlockBegin
2
Fényakna
70
0
10
0.
20
0.
30
0.
3
Fényakna
1

0
LINE
5
73162
100
AcDbEntity
8
0
6
CONTINUOUS
62
1
100
AcDbLine
39
0.
10
0.
20
0.
30
0.
11
-2.
21
0.
31
0.
0
LINE
5
73163
100
AcDbEntity
8
0
6
CONTINUOUS
62
1
100
AcDbLine
39
0.
10
0.
20
0.
30
0.
11
2.
21
0.
31
0.
0
ENDBLK
5
73164
100
AcDbEntity
8
0
100
AcDbBlockEnd
0
BLOCK
5
73165
100
AcDbEntity
8
0
100
AcDbBlockBegin
2
Híd
70
0
10
0.
20
0.
30
0.
3
Híd
1

0
LINE
5
73166
100
AcDbEntity
8
0
6
CONTINUOUS
62
1
100
AcDbLine
39
0.
10
0.
20
0.
30
0.
11
2.
21
2.
31
0.
0
ENDBLK
5
73167
100
AcDbEntity
8
0
100
AcDbBlockEnd
0
BLOCK
5
73168
100
AcDbEntity
8
0
100
AcDbBlockBegin
2
Nyíl___2_5_mm_
70
0
10
0.
20
0.
30
0.
3
Nyíl___2_5_mm_
1

0
LINE
5
73169
100
AcDbEntity
8
0
6
CONTINUOUS
62
1
100
AcDbLine
39
0.
10
0.
20
0.
30
0.
11
-2.5
21
0.
31
0.
0
LINE
5
7316a
100
AcDbEntity
8
0
6
CONTINUOUS
62
1
100
AcDbLine
39
0.
10
-0.75
20
0.25
30
0.
11
0.
21
0.
31
0.
0
LINE
5
7316b
100
AcDbEntity
8
0
6
CONTINUOUS
62
1
100
AcDbLine
39
0.
10
0.
20
0.
30
0.
11
-0.75
21
-0.25
31
0.
0
ENDBLK
5
7316c
100
AcDbEntity
8
0
100
AcDbBlockEnd
0
BLOCK
5
7316d
100
AcDbEntity
8
0
100
AcDbBlockBegin
2
Nyíl___4_mm_
70
0
10
0.
20
0.
30
0.
3
Nyíl___4_mm_
1

0
LINE
5
7316e
100
AcDbEntity
8
0
6
CONTINUOUS
62
1
100
AcDbLine
39
0.
10
0.
20
0.
30
0.
11
-4.
21
0.
31
0.
0
LINE
5
7316f
100
AcDbEntity
8
0
6
CONTINUOUS
62
1
100
AcDbLine
39
0.
10
-0.75
20
-0.25
30
0.
11
0.
21
0.
31
0.
0
LINE
5
73170
100
AcDbEntity
8
0
6
CONTINUOUS
62
1
100
AcDbLine
39
0.
10
0.
20
0.
30
0.
11
-0.75
21
0.25
31
0.
0
ENDBLK
5
73171
100
AcDbEntity
8
0
100
AcDbBlockEnd
0
BLOCK
5
73172
100
AcDbEntity
8
0
100
AcDbBlockBegin
2
Folyásirány_nyíl
70
0
10
0.
20
0.
30
0.
3
Folyásirány_nyíl
1

0
LINE
5
73173
100
AcDbEntity
8
0
6
CONTINUOUS
62
1
100
AcDbLine
39
0.
10
0.
20
0.
30
0.
11
-4.5
21
0.
31
0.
0
LINE
5
73174
100
AcDbEntity
8
0
6
CONTINUOUS
62
1
100
AcDbLine
39
0.
10
0.
20
0.
30
0.
11
4.5
21
0.
31
0.
0
LINE
5
73175
100
AcDbEntity
8
0
6
CONTINUOUS
62
1
100
AcDbLine
39
0.
10
4.5
20
0.
30
0.
11
3.5
21
0.25
31
0.
0
LINE
5
73176
100
AcDbEntity
8
0
6
CONTINUOUS
62
1
100
AcDbLine
39
0.
10
3.5
20
-0.25
30
0.
11
4.5
21
0.
31
0.
0
ENDBLK
5
73177
100
AcDbEntity
8
0
100
AcDbBlockEnd
0
BLOCK
5
73178
100
AcDbEntity
8
0
100
AcDbBlockBegin
2
Kerítés__drót_
70
0
10
0.
20
0.
30
0.
3
Kerítés__drót_
1

0
LINE
5
73179
100
AcDbEntity
8
0
6
CONTINUOUS
62
1
100
AcDbLine
39
0.
10
0.75
20
0.75
30
0.
11
-0.75
21
-0.75
31
0.
0
LINE
5
7317a
100
AcDbEntity
8
0
6
CONTINUOUS
62
1
100
AcDbLine
39
0.
10
0.75
20
-0.75
30
0.
11
-0.75
21
0.75
31
0.
0
ENDBLK
5
7317b
100
AcDbEntity
8
0
100
AcDbBlockEnd
0
BLOCK
5
7317c
100
AcDbEntity
8
0
100
AcDbBlockBegin
2
Kerítés__sövény_
70
0
10
0.
20
0.
30
0.
3
Kerítés__sövény_
1

0
LINE
5
7317d
100
AcDbEntity
8
0
6
CONTINUOUS
62
1
100
AcDbLine
39
0.
10
0.
20
0.
30
0.
11
0.75
21
0.75
31
0.
0
LINE
5
7317e
100
AcDbEntity
8
0
6
CONTINUOUS
62
1
100
AcDbLine
39
0.
10
0.
20
0.75
30
0.
11
0.
21
0.
31
0.
0
LINE
5
7317f
100
AcDbEntity
8
0
6
CONTINUOUS
62
1
100
AcDbLine
39
0.
10
0.
20
0.
30
0.
11
-0.75
21
0.75
31
0.
0
ENDBLK
5
73180
100
AcDbEntity
8
0
100
AcDbBlockEnd
0
BLOCK
5
73181
100
AcDbEntity
8
0
100
AcDbBlockBegin
2
Kerítés__fa_
70
0
10
0.
20
0.
30
0.
3
Kerítés__fa_
1

0
LINE
5
73182
100
AcDbEntity
8
0
6
CONTINUOUS
62
1
100
AcDbLine
39
0.
10
0.
20
0.
30
0.
11
0.
21
1.
31
0.
0
ENDBLK
5
73183
100
AcDbEntity
8
0
100
AcDbBlockEnd
0
BLOCK
5
73184
100
AcDbEntity
8
0
100
AcDbBlockBegin
2
Kerítés__fonott_
70
0
10
0.
20
0.
30
0.
3
Kerítés__fonott_
1

0
LINE
5
73185
100
AcDbEntity
8
0
6
CONTINUOUS
62
1
100
AcDbLine
39
0.
10
0.
20
0.
30
0.
11
0.25
21
-0.25
31
0.
0
LINE
5
73186
100
AcDbEntity
8
0
6
CONTINUOUS
62
1
100
AcDbLine
39
0.
10
0.25
20
-0.25
30
0.
11
0.62
21
-0.38
31
0.
0
LINE
5
73187
100
AcDbEntity
8
0
6
CONTINUOUS
62
1
100
AcDbLine
39
0.
10
0.62
20
-0.38
30
0.
11
1.
21
-0.25
31
0.
0
LINE
5
73188
100
AcDbEntity
8
0
6
CONTINUOUS
62
1
100
AcDbLine
39
0.
10
1.
20
-0.25
30
0.
11
1.5
21
0.25
31
0.
0
LINE
5
73189
100
AcDbEntity
8
0
6
CONTINUOUS
62
1
100
AcDbLine
39
0.
10
0.
20
0.
30
0.
11
-0.25
21
0.25
31
0.
0
LINE
5
7318a
100
AcDbEntity
8
0
6
CONTINUOUS
62
1
100
AcDbLine
39
0.
10
-0.25
20
0.25
30
0.
11
-0.62
21
0.38
31
0.
0
LINE
5
7318b
100
AcDbEntity
8
0
6
CONTINUOUS
62
1
100
AcDbLine
39
0.
10
-0.62
20
0.38
30
0.
11
-1.
21
0.25
31
0.
0
LINE
5
7318c
100
AcDbEntity
8
0
6
CONTINUOUS
62
1
100
AcDbLine
39
0.
10
-1.
20
0.25
30
0.
11
-1.25
21
0.
31
0.
0
LINE
5
7318d
100
AcDbEntity
8
0
6
CONTINUOUS
62
1
100
AcDbLine
39
0.
10
-1.25
20
0.
30
0.
11
-1.5
21
-0.25
31
0.
0
ENDBLK
5
7318e
100
AcDbEntity
8
0
100
AcDbBlockEnd
0
BLOCK
5
7318f
100
AcDbEntity
8
0
100
AcDbBlockBegin
2
Poláris_részletpont
70
0
10
0.
20
0.
30
0.
3
Poláris_részletpont
1

0
LINE
5
73190
100
AcDbEntity
8
0
6
CONTINUOUS
62
1
100
AcDbLine
39
0.
10
0.5
20
0.
30
0.
11
3.
21
0.
31
0.
0
LINE
5
73191
100
AcDbEntity
8
0
6
CONTINUOUS
62
1
100
AcDbLine
39
0.
10
3.75
20
0.
30
0.
11
6.25
21
0.
31
0.
0
LINE
5
73192
100
AcDbEntity
8
0
6
CONTINUOUS
62
1
100
AcDbLine
39
0.
10
7.
20
0.
30
0.
11
9.5
21
0.
31
0.
0
ENDBLK
5
73193
100
AcDbEntity
8
0
100
AcDbBlockEnd
0
BLOCK
5
73194
100
AcDbEntity
8
0
100
AcDbBlockBegin
2
Nyíl_1__mérési_vonal_
70
0
10
0.
20
0.
30
0.
3
Nyíl_1__mérési_vonal_
1

0
LINE
5
73195
100
AcDbEntity
8
0
6
CONTINUOUS
62
1
100
AcDbLine
39
0.
10
0.28000000000000003
20
0.41999999999999998
30
0.
11
0.5
21
0.75
31
0.
0
LINE
5
73196
100
AcDbEntity
8
0
6
CONTINUOUS
62
1
100
AcDbLine
39
0.
10
0.5
20
0.75
30
0.
11
1.
21
1.1200000000000001
31
0.
0
LINE
5
73197
100
AcDbEntity
8
0
6
CONTINUOUS
62
1
100
AcDbLine
39
0.
10
1.
20
1.1200000000000001
30
0.
11
1.6200000000000001
21
1.28
31
0.
0
LINE
5
73198
100
AcDbEntity
8
0
6
CONTINUOUS
62
1
100
AcDbLine
39
0.
10
1.6200000000000001
20
1.28
30
0.
11
2.5
21
1.3799999999999999
31
0.
0
LINE
5
73199
100
AcDbEntity
8
0
6
CONTINUOUS
62
1
100
AcDbLine
39
0.
10
2.5
20
1.3799999999999999
30
0.
11
1.8799999999999999
21
1.
31
0.
0
LINE
5
7319a
100
AcDbEntity
8
0
6
CONTINUOUS
62
1
100
AcDbLine
39
0.
10
1.8200000000000001
20
1.5800000000000001
30
0.
11
2.5
21
1.3799999999999999
31
0.
0
ENDBLK
5
7319b
100
AcDbEntity
8
0
100
AcDbBlockEnd
0
BLOCK
5
7319c
100
AcDbEntity
8
0
100
AcDbBlockBegin
2
Nyíl_2__mérési_vonal_
70
0
10
0.
20
0.
30
0.
3
Nyíl_2__mérési_vonal_
1

0
LINE
5
7319d
100
AcDbEntity
8
0
6
CONTINUOUS
62
1
100
AcDbLine
39
0.
10
0.28000000000000003
20
-0.41999999999999998
30
0.
11
0.5
21
-0.75
31
0.
0
LINE
5
7319e
100
AcDbEntity
8
0
6
CONTINUOUS
62
1
100
AcDbLine
39
0.
10
0.5
20
-0.75
30
0.
11
1.
21
-1.1200000000000001
31
0.
0
LINE
5
7319f
100
AcDbEntity
8
0
6
CONTINUOUS
62
1
100
AcDbLine
39
0.
10
1.
20
-1.1200000000000001
30
0.
11
1.6200000000000001
21
-1.28
31
0.
0
LINE
5
731a0
100
AcDbEntity
8
0
6
CONTINUOUS
62
1
100
AcDbLine
39
0.
10
1.6200000000000001
20
-1.28
30
0.
11
2.5
21
-1.3799999999999999
31
0.
0
LINE
5
731a1
100
AcDbEntity
8
0
6
CONTINUOUS
62
1
100
AcDbLine
39
0.
10
2.5
20
-1.3799999999999999
30
0.
11
1.8799999999999999
21
-1.
31
0.
0
LINE
5
731a2
100
AcDbEntity
8
0
6
CONTINUOUS
62
1
100
AcDbLine
39
0.
10
1.8200000000000001
20
-1.5800000000000001
30
0.
11
2.5
21
-1.3799999999999999
31
0.
0
ENDBLK
5
731a3
100
AcDbEntity
8
0
100
AcDbBlockEnd
0
BLOCK
5
731a4
100
AcDbEntity
8
0
100
AcDbBlockBegin
2
Derékszög_jel
70
0
10
0.
20
0.
30
0.
3
Derékszög_jel
1

0
LINE
5
731a5
100
AcDbEntity
8
0
6
CONTINUOUS
62
1
100
AcDbLine
39
0.
10
1.
20
1.
30
0.
11
1.
21
2.25
31
0.
0
LINE
5
731a6
100
AcDbEntity
8
0
6
CONTINUOUS
62
1
100
AcDbLine
39
0.
10
1.
20
1.
30
0.
11
2.3799999999999999
21
1.
31
0.
0
ENDBLK
5
731a7
100
AcDbEntity
8
0
100
AcDbBlockEnd
0
BLOCK
5
731a8
100
AcDbEntity
8
0
100
AcDbBlockBegin
2
Kihosszabbítás_jel
70
0
10
0.
20
0.
30
0.
3
Kihosszabbítás_jel
1

0
LINE
5
731a9
100
AcDbEntity
8
0
6
CONTINUOUS
62
1
100
AcDbLine
39
0.
10
0.
20
0.
30
0.
11
1.75
21
1.
31
0.
0
LINE
5
731aa
100
AcDbEntity
8
0
6
CONTINUOUS
62
1
100
AcDbLine
39
0.
10
1.25
20
0.
30
0.
11
3.
21
1.
31
0.
0
LINE
5
731ab
100
AcDbEntity
8
0
6
CONTINUOUS
62
1
100
AcDbLine
39
0.
10
3.
20
-1.
30
0.
11
1.25
21
0.
31
0.
0
LINE
5
731ac
100
AcDbEntity
8
0
6
CONTINUOUS
62
1
100
AcDbLine
39
0.
10
1.75
20
-1.
30
0.
11
0.
21
0.
31
0.
0
ENDBLK
5
731ad
100
AcDbEntity
8
0
100
AcDbBlockEnd
0
BLOCK
5
731ae
100
AcDbEntity
8
0
100
AcDbBlockBegin
2
Szõlõ_mûveléság
70
0
10
0.
20
0.
30
0.
3
Sz
1

0
TEXT
5
731af
100
AcDbEntity
8
ITR-14-ALR_MUV_AG
6
Continuous
62
1
100
AcDbText
39
0.
40
5.
10
0.
20
0.
30
0.
1

7
ItrW_DAT1_M2
11
0.
21
0.
31
0.
72
0.
100
AcDbText
73
0.
0
ENDBLK
5
731b0
100
AcDbEntity
8
0
100
AcDbBlockEnd
0
ENDSEC
0
SECTION
2
ENTITIES
0
INSERT
5
731b1
100
AcDbEntity
8
ITR-6-TELEPULESHAT
6
CONTINUOUS
62
0
100
AcDbBlockReference
39
0.
10
884776.39000000001
20
295605.25
30
0.
2
Részletpont_kõ___I__rendû_
41
2.
42
2.
43
1.
50
0.
0
INSERT
5
731b2
100
AcDbEntity
8
ITR-6-TELEPULESHAT
6
CONTINUOUS
62
0
100
AcDbBlockReference
39
0.
10
884760.68000000005
20
295602.32000000001
30
0.
2
Településhatár
41
2.
42
2.
43
1.
50
10.6
0
INSERT
5
731b3
100
AcDbEntity
8
ITR-6-TELEPULESHAT
6
CONTINUOUS
62
0
100
AcDbBlockReference
39
0.
10
884735.31000000006
20
295615.12
30
0.
2
Részletpont_kõ___I__rendû_
41
2.
42
2.
43
1.
50
0.
0
INSERT
5
731b4
100
AcDbEntity
8
ITR-6-TELEPULESHAT
6
CONTINUOUS
62
0
100
AcDbBlockReference
39
0.
10
884647.04000000004
20
295599.32000000001
30
0.
2
Részletpont_kõ___I__rendû_
41
2.
42
2.
43
1.
50
0.
0
INSERT
5
731b5
100
AcDbEntity
8
ITR-6-TELEPULESHAT
6
CONTINUOUS
62
0
100
AcDbBlockReference
39
0.
10
884744.97999999998
20
295599.38
30
0.
2
Részletpont_kõ___I__rendû_
41
2.
42
2.
43
1.
50
0.
0
INSERT
5
731b6
100
AcDbEntity
8
ITR-6-TELEPULESHAT
6
CONTINUOUS
62
0
100
AcDbBlockReference
39
0.
10
884628.97999999998
20
295588.52000000002
30
0.
2
Részletpont_kõ___I__rendû_
41
2.
42
2.
43
1.
50
0.
0
INSERT
5
731b7
100
AcDbEntity
8
ITR-6-TELEPULESHAT
6
CONTINUOUS
62
0
100
AcDbBlockReference
39
0.
10
884554.28000000003
20
295579.28999999998
30
0.
2
Településhatár
41
2.
42
2.
43
1.
50
7.
0
INSERT
5
731b8
100
AcDbEntity
8
ITR-6-TELEPULESHAT
6
CONTINUOUS
62
0
100
AcDbBlockReference
39
0.
10
884533.39000000001
20
295576.71000000002
30
0.
2
Részletpont_kõ___I__rendû_
41
2.
42
2.
43
1.
50
0.
0
INSERT
5
731b9
100
AcDbEntity
8
ITR-6-TELEPULESHAT
6
CONTINUOUS
62
0
100
AcDbBlockReference
39
0.
10
884417.25
20
295581.10999999999
30
0.
2
Részletpont_kõ___I__rendû_
41
2.
42
2.
43
1.
50
0.
0
INSERT
5
731ba
100
AcDbEntity
8
ITR-6-TELEPULESHAT
6
CONTINUOUS
62
0
100
AcDbBlockReference
39
0.
10
884366.12
20
295573.97999999998
30
0.
2
Településhatár
41
2.
42
2.
43
1.
50
7.9000000000000004
0
INSERT
5
731bb
100
AcDbEntity
8
ITR-6-TELEPULESHAT
6
CONTINUOUS
62
0
100
AcDbBlockReference
39
0.
10
884345.77000000002
20
295576.96000000002
30
0.
2
Részletpont_kõ___I__rendû_
41
2.
42
2.
43
1.
50
0.
0
INSERT
5
731bc
100
AcDbEntity
8
ITR-6-TELEPULESHAT
6
CONTINUOUS
62
0
100
AcDbBlockReference
39
0.
10
884348.05000000005
20
295571.46000000002
30
0.
2
Részletpont_kõ___I__rendû_
41
2.
42
2.
43
1.
50
0.
0
INSERT
5
731bd
100
AcDbEntity
8
ITR-6-TELEPULESHAT
6
CONTINUOUS
62
0
100
AcDbBlockReference
39
0.
10
884332.62
20
295573.88
30
0.
2
Részletpont_kõ___I__rendû_
41
2.
42
2.
43
1.
50
0.
0
INSERT
5
731be
100
AcDbEntity
8
ITR-6-TELEPULESHAT
6
CONTINUOUS
62
0
100
AcDbBlockReference
39
0.
10
886916.28000000003
20
297023.94
30
0.
2
Településhatár
41
2.
42
2.
43
1.
50
96.700000000000003
0
INSERT
5
731bf
100
AcDbEntity
8
ITR-6-TELEPULESHAT
6
CONTINUOUS
62
0
100
AcDbBlockReference
39
0.
10
886920.12
20
297108.21999999997
30
0.
2
Településhatár
41
2.
42
2.
43
1.
50
258.80000000000001
0
INSERT
5
731c0
100
AcDbEntity
8
ITR-7-FEKVESHATAR
6
CONTINUOUS
62
0
100
AcDbBlockReference
39
0.
10
883508.28000000003
20
297006.07000000001
30
0.
2
Részletpont_kõ___I__rendû_
41
2.
42
2.
43
1.
50
0.
0
INSERT
5
731c1
100
AcDbEntity
8
ITR-7-FEKVESHATAR
6
CONTINUOUS
62
0
100
AcDbBlockReference
39
0.
10
883469.48999999999
20
297049.10999999999
30
0.
2
Részletpont_kõ___I__rendû_
41
2.
42
2.
43
1.
50
0.
0
INSERT
5
731c2
100
AcDbEntity
8
ITR-7-FEKVESHATAR
6
CONTINUOUS
62
0
100
AcDbBlockReference
39
0.
10
883481.20999999996
20
297017.62
30
0.
2
Részletpont_kõ___I__rendû_
41
2.
42
2.
43
1.
50
0.
0
INSERT
5
731c3
100
AcDbEntity
8
ITR-7-FEKVESHATAR
6
CONTINUOUS
62
0
100
AcDbBlockReference
39
0.
10
883518.62
20
296990.88
30
0.
2
Belterület_határ
41
2.
42
2.
43
1.
50
124.2
0
INSERT
5
731c4
100
AcDbEntity
8
ITR-7-FEKVESHATAR
6
CONTINUOUS
62
0
100
AcDbBlockReference
39
0.
10
883581.92000000004
20
296863.97999999998
30
0.
2
Részletpont_kõ___I__rendû_
41
2.
42
2.
43
1.
50
0.
0
INSERT
5
731c5
100
AcDbEntity
8
ITR-7-FEKVESHATAR
6
CONTINUOUS
62
0
100
AcDbBlockReference
39
0.
10
883544.41000000003
20
296952.97999999998
30
0.
2
Részletpont_kõ___I__rendû_
41
2.
42
2.
43
1.
50
0.
0
INSERT
5
731c6
100
AcDbEntity
8
ITR-7-FEKVESHATAR
6
CONTINUOUS
62
0
100
AcDbBlockReference
39
0.
10
883495.73999999999
20
296999.71999999997
30
0.
2
Részletpont_kõ___I__rendû_
41
2.
42
2.
43
1.
50
0.
0
INSERT
5
731c7
100
AcDbEntity
8
ITR-7-FEKVESHATAR
6
CONTINUOUS
62
0
100
AcDbBlockReference
39
0.
10
883609.73999999999
20
296814.33000000002
30
0.
2
Részletpont_kõ___I__rendû_
41
2.
42
2.
43
1.
50
0.
0
INSERT
5
731c8
100
AcDbEntity
8
ITR-7-FEKVESHATAR
6
CONTINUOUS
62
0
100
AcDbBlockReference
39
0.
10
883662.85999999999
20
296739.91999999998
30
0.
2
Belterület_határ
41
2.
42
2.
43
1.
50
131.09999999999999
0
INSERT
5
731c9
100
AcDbEntity
8
ITR-7-FEKVESHATAR
6
CONTINUOUS
62
0
100
AcDbBlockReference
39
0.
10
883685.25
20
296681.77000000002
30
0.
2
Részletpont_kõ___I__rendû_
41
2.
42
2.
43
1.
50
0.
0
INSERT
5
731ca
100
AcDbEntity
8
ITR-7-FEKVESHATAR
6
CONTINUOUS
62
0
100
AcDbBlockReference
39
0.
10
883677.10999999999
20
296697.
30
0.
2
Részletpont_kõ___I__rendû_
41
2.
42
2.
43
1.
50
0.
0
INSERT
5
731cb
100
AcDbEntity
8
ITR-7-FEKVESHATAR
6
CONTINUOUS
62
0
100
AcDbBlockReference
39
0.
10
883690.57999999996
20
296708.10999999999
30
0.
2
Részletpont_kõ___I__rendû_
41
2.
42
2.
43
1.
50
0.
0
INSERT
5
731cc
100
AcDbEntity
8
ITR-7-FEKVESHATAR
6
CONTINUOUS
62
0
100
AcDbBlockReference
39
0.
10
883635.14000000001
20
296771.72999999998
30
0.
2
Részletpont_kõ___I__rendû_
41
2.
42
2.
43
1.
50
0.
0
INSERT
5
731cd
100
AcDbEntity
8
ITR-7-FEKVESHATAR
6
CONTINUOUS
62
0
100
AcDbBlockReference
39
0.
10
884559.87
20
296411.03999999998
30
0.
2
Belterület_határ
41
2.
42
2.
43
1.
50
17.300000000000001
0
INSERT
5
731ce
100
AcDbEntity
8
ITR-7-FEKVESHATAR
6
CONTINUOUS
62
0
100
AcDbBlockReference
39
0.
10
884670.80000000005
20
296394.14000000001
30
0.
2
Belterület_határ
41
2.
42
2.
43
1.
50
289.10000000000002
0
INSERT
5
731cf
100
AcDbEntity
8
ITR-7-FEKVESHATAR
6
CONTINUOUS
62
0
100
AcDbBlockReference
39
0.
10
884686.89000000001
20
296347.67999999999
30
0.
2
Részletpont_kõ___I__rendû_
41
2.
42
2.
43
1.
50
0.
0
INSERT
5
731d0
100
AcDbEntity
8
ITR-7-FEKVESHATAR
6
CONTINUOUS
62
0
100
AcDbBlockReference
39
0.
10
884083.93000000005
20
296349.33000000002
30
0.
2
Részletpont_kõ___I__rendû_
41
2.
42
2.
43
1.
50
0.
0
INSERT
5
731d1
100
AcDbEntity
8
ITR-7-FEKVESHATAR
6
CONTINUOUS
62
0
100
AcDbBlockReference
39
0.
10
884292.35999999999
20
296339.94
30
0.
2
Belterület_határ
41
2.
42
2.
43
1.
50
6.
0
INSERT
5
731d2
100
AcDbEntity
8
ITR-7-FEKVESHATAR
6
CONTINUOUS
62
0
100
AcDbBlockReference
39
0.
10
884823.83999999997
20
296385.52000000002
30
0.
2
Belterület_határ
41
2.
42
2.
43
1.
50
15.4
0
INSERT
5
731d3
100
AcDbEntity
8
ITR-7-FEKVESHATAR
6
CONTINUOUS
62
0
100
AcDbBlockReference
39
0.
10
884978.57999999996
20
296484.65999999997
30
0.
2
Belterület_határ
41
2.
42
2.
43
1.
50
288.19999999999999
0
INSERT
5
731d4
100
AcDbEntity
8
ITR-7-FEKVESHATAR
6
CONTINUOUS
62
0
100
AcDbBlockReference
39
0.
10
884995.63
20
296432.96999999997
30
0.
2
Részletpont_kõ___I__rendû_
41
2.
42
2.
43
1.
50
0.
0
INSERT
5
731d5
100
AcDbEntity
8
ITR-7-FEKVESHATAR
6
CONTINUOUS
62
0
100
AcDbBlockReference
39
0.
10
884470.44999999995
20
296398.40999999997
30
0.
2
Részletpont_kõ___I__rendû_
41
2.
42
2.
43
1.
50
0.
0
INSERT
5
731d6
100
AcDbEntity
8
ITR-7-FEKVESHATAR
6
CONTINUOUS
62
0
100
AcDbBlockReference
39
0.
10
884487.66000000003
20
296396.95000000001
30
0.
2
Részletpont_kõ___I__rendû_
41
2.
42
2.
43
1.
50
0.
0
INSERT
5
731d7
100
AcDbEntity
8
ITR-7-FEKVESHATAR
6
CONTINUOUS
62
0
100
AcDbBlockReference
39
0.
10
883428.18000000005
20
297206.17999999999
30
0.
2
Belterület_határ
41
2.
42
2.
43
1.
50
104.7
0
INSERT
5
731d8
100
AcDbEntity
8
ITR-7-FEKVESHATAR
6
CONTINUOUS
62
0
100
AcDbBlockReference
39
0.
10
883410.91000000003
20
297271.84000000003
30
0.
2
Részletpont_kõ___I__rendû_
41
2.
42
2.
43
1.
50
0.
0
INSERT
5
731d9
100
AcDbEntity
8
ITR-7-FEKVESHATAR
6
CONTINUOUS
62
0
100
AcDbBlockReference
39
0.
10
883276.93999999994
20
297762.28000000003
30
0.
2
Belterület_határ
41
2.
42
2.
43
1.
50
285.30000000000001
0
INSERT
5
731da
100
AcDbEntity
8
ITR-7-FEKVESHATAR
6
CONTINUOUS
62
0
100
AcDbBlockReference
39
0.
10
883272.59999999998
20
297778.20000000001
30
0.
2
Részletpont_kõ___I__rendû_
41
2.
42
2.
43
1.
50
0.
0
INSERT
5
731db
100
AcDbEntity
8
ITR-7-FEKVESHATAR
6
CONTINUOUS
62
0
100
AcDbBlockReference
39
0.
10
883248.5
20
297771.97999999998
30
0.
2
Részletpont_kõ___I__rendû_
41
2.
42
2.
43
1.
50
0.
0
INSERT
5
731dc
100
AcDbEntity
8
ITR-7-FEKVESHATAR
6
CONTINUOUS
62
0
100
AcDbBlockReference
39
0.
10
883373.87
20
297856.84999999998
30
0.
2
Belterület_határ
41
2.
42
2.
43
1.
50
14.800000000000001
0
INSERT
5
731dd
100
AcDbEntity
8
ITR-7-FEKVESHATAR
6
CONTINUOUS
62
0
100
AcDbBlockReference
39
0.
10
883232.10999999999
20
297819.37
30
0.
2
Részletpont_kõ___I__rendû_
41
2.
42
2.
43
1.
50
0.
0
INSERT
5
731de
100
AcDbEntity
8
ITR-7-FEKVESHATAR
6
CONTINUOUS
62
0
100
AcDbBlockReference
39
0.
10
883939.33999999997
20
297965.29999999999
30
0.
2
Részletpont_kõ___I__rendû_
41
2.
42
2.
43
1.
50
0.
0
INSERT
5
731df
100
AcDbEntity
8
ITR-7-FEKVESHATAR
6
CONTINUOUS
62
0
100
AcDbBlockReference
39
0.
10
883757.45999999996
20
297990.64000000001
30
0.
2
Belterület_határ
41
2.
42
2.
43
1.
50
287.89999999999998
0
INSERT
5
731e0
100
AcDbEntity
8
ITR-7-FEKVESHATAR
6
CONTINUOUS
62
0
100
AcDbBlockReference
39
0.
10
883782.78000000003
20
297912.15000000002
30
0.
2
Részletpont_kõ___I__rendû_
41
2.
42
2.
43
1.
50
0.
0
INSERT
5
731e1
100
AcDbEntity
8
ITR-7-FEKVESHATAR
6
CONTINUOUS
62
0
100
AcDbBlockReference
39
0.
10
884753.07999999996
20
298146.5
30
0.
2
Belterület_határ
41
2.
42
2.
43
1.
50
288.30000000000001
0
INSERT
5
731e2
100
AcDbEntity
8
ITR-7-FEKVESHATAR
6
CONTINUOUS
62
0
100
AcDbBlockReference
39
0.
10
884478.42000000004
20
298174.33000000002
30
0.
2
Belterület_határ
41
2.
42
2.
43
1.
50
107.5
0
INSERT
5
731e3
100
AcDbEntity
8
ITR-7-FEKVESHATAR
6
CONTINUOUS
62
0
100
AcDbBlockReference
39
0.
10
884490.55000000005
20
298135.78999999998
30
0.
2
Részletpont_kõ___I__rendû_
41
2.
42
2.
43
1.
50
0.
0
INSERT
5
731e4
100
AcDbEntity
8
ITR-7-FEKVESHATAR
6
CONTINUOUS
62
0
100
AcDbBlockReference
39
0.
10
884706.04000000004
20
298288.46999999997
30
0.
2
Részletpont_kõ___I__rendû_
41
2.
42
2.
43
1.
50
0.
0
INSERT
5
731e5
100
AcDbEntity
8
ITR-7-FEKVESHATAR
6
CONTINUOUS
62
0
100
AcDbBlockReference
39
0.
10
884646.19999999995
20
298269.59999999998
30
0.
2
Belterület_határ
41
2.
42
2.
43
1.
50
17.5
0
INSERT
5
731e6
100
AcDbEntity
8
ITR-7-FEKVESHATAR
6
CONTINUOUS
62
0
100
AcDbBlockReference
39
0.
10
884466.29000000004
20
298212.87
30
0.
2
Részletpont_kõ___I__rendû_
41
2.
42
2.
43
1.
50
0.
0
INSERT
5
731e7
100
AcDbEntity
8
ITR-7-FEKVESHATAR
6
CONTINUOUS
62
0
100
AcDbBlockReference
39
0.
10
884705.06000000006
20
297634.53000000003
30
0.
2
Részletpont_kõ___I__rendû_
41
2.
42
2.
43
1.
50
0.
0
INSERT
5
731e8
100
AcDbEntity
8
ITR-7-FEKVESHATAR
6
CONTINUOUS
62
0
100
AcDbBlockReference
39
0.
10
884731.53000000003
20
297643.81
30
0.
2
Belterület_határ
41
2.
42
2.
43
1.
50
19.300000000000001
0
INSERT
5
731e9
100
AcDbEntity
8
ITR-7-FEKVESHATAR
6
CONTINUOUS
62
0
100
AcDbBlockReference
39
0.
10
884748.82999999996
20
297478.32000000001
30
0.
2
Belterület_határ
41
2.
42
2.
43
1.
50
285.69999999999999
0
INSERT
5
731ea
100
AcDbEntity
8
ITR-7-FEKVESHATAR
6
CONTINUOUS
62
0
100
AcDbBlockReference
39
0.
10
884793.93999999994
20
297317.33000000002
30
0.
2
Részletpont_kõ___I__rendû_
41
2.
42
2.
43
1.
50
0.
0
INSERT
5
731eb
100
AcDbEntity
8
ITR-7-FEKVESHATAR
6
CONTINUOUS
62
0
100
AcDbBlockReference
39
0.
10
884796.70999999996
20
297307.42999999999
30
0.
2
Részletpont_kõ___I__rendû_
41
2.
42
2.
43
1.
50
0.
0
INSERT
5
731ec
100
AcDbEntity
8
ITR-7-FEKVESHATAR
6
CONTINUOUS
62
0
100
AcDbBlockReference
39
0.
10
884816.06000000006
20
297313.90000000002
30
0.
2
Belterület_határ
41
2.
42
2.
43
1.
50
18.5
0
INSERT
5
731ed
100
AcDbEntity
8
ITR-7-FEKVESHATAR
6
CONTINUOUS
62
0
100
AcDbBlockReference
39
0.
10
884917.90000000002
20
297301.25
30
0.
2
Belterület_határ
41
2.
42
2.
43
1.
50
287.80000000000001
0
INSERT
5
731ee
100
AcDbEntity
8
ITR-7-FEKVESHATAR
6
CONTINUOUS
62
0
100
AcDbBlockReference
39
0.
10
884950.70999999996
20
297200.
30
0.
2
Belterület_határ
41
2.
42
2.
43
1.
50
107.7
0
INSERT
5
731ef
100
AcDbEntity
8
ITR-7-FEKVESHATAR
6
CONTINUOUS
62
0
100
AcDbBlockReference
39
0.
10
884905.
20
297341.5
30
0.
2
Részletpont_kõ___I__rendû_
41
2.
42
2.
43
1.
50
0.
0
INSERT
5
731f0
100
AcDbEntity
8
ITR-7-FEKVESHATAR
6
CONTINUOUS
62
0
100
AcDbBlockReference
39
0.
10
884968.42000000004
20
297144.48999999999
30
0.
2
Részletpont_kõ___I__rendû_
41
2.
42
2.
43
1.
50
0.
0
INSERT
5
731f1
100
AcDbEntity
8
ITR-7-FEKVESHATAR
6
CONTINUOUS
62
0
100
AcDbBlockReference
39
0.
10
885083.85999999999
20
297181.21999999997
30
0.
2
Belterület_határ
41
2.
42
2.
43
1.
50
17.600000000000001
0
INSERT
5
731f2
100
AcDbEntity
8
ITR-7-FEKVESHATAR
6
CONTINUOUS
62
0
100
AcDbBlockReference
39
0.
10
884059.68000000005
20
296421.20000000001
30
0.
2
Belterület_határ
41
2.
42
2.
43
1.
50
108.59999999999999
0
INSERT
5
731f3
100
AcDbEntity
8
ITR-7-FEKVESHATAR
6
CONTINUOUS
62
0
100
AcDbBlockReference
39
0.
10
884035.27000000002
20
296493.58000000002
30
0.
2
Részletpont_kõ___I__rendû_
41
2.
42
2.
43
1.
50
0.
0
INSERT
5
731f4
100
AcDbEntity
8
ITR-7-FEKVESHATAR
6
CONTINUOUS
62
0
100
AcDbBlockReference
39
0.
10
883939.38
20
296445.91999999998
30
0.
2
Belterület_határ
41
2.
42
2.
43
1.
50
241.69999999999999
0
INSERT
5
731f5
100
AcDbEntity
8
ITR-7-FEKVESHATAR
6
CONTINUOUS
62
0
100
AcDbBlockReference
39
0.
10
883835.16000000003
20
296496.71999999997
30
0.
2
Belterület_határ
41
2.
42
2.
43
1.
50
131.30000000000001
0
INSERT
5
731f6
100
AcDbEntity
8
ITR-7-FEKVESHATAR
6
CONTINUOUS
62
0
100
AcDbBlockReference
39
0.
10
883946.81999999995
20
296459.75
30
0.
2
Részletpont_kõ___I__rendû_
41
2.
42
2.
43
1.
50
0.
0
INSERT
5
731f7
100
AcDbEntity
8
ITR-7-FEKVESHATAR
6
CONTINUOUS
62
0
100
AcDbBlockReference
39
0.
10
883916.76000000001
20
296403.90000000002
30
0.
2
Részletpont_kõ___I__rendû_
41
2.
42
2.
43
1.
50
0.
0
INSERT
5
731f8
100
AcDbEntity
8
ITR-7-FEKVESHATAR
6
CONTINUOUS
62
0
100
AcDbBlockReference
39
0.
10
884968.62
20
296791.60999999999
30
0.
2
Belterület_határ
41
2.
42
2.
43
1.
50
197.30000000000001
0
INSERT
5
731f9
100
AcDbEntity
8
ITR-7-FEKVESHATAR
6
CONTINUOUS
62
0
100
AcDbBlockReference
39
0.
10
884906.23999999999
20
296704.08000000002
30
0.
2
Belterület_határ
41
2.
42
2.
43
1.
50
288.30000000000001
0
INSERT
5
731fa
100
AcDbEntity
8
ITR-7-FEKVESHATAR
6
CONTINUOUS
62
0
100
AcDbBlockReference
39
0.
10
884889.33999999997
20
296755.32000000001
30
0.
2
Részletpont_kõ___I__rendû_
41
2.
42
2.
43
1.
50
0.
0
INSERT
5
731fb
100
AcDbEntity
8
ITR-7-FEKVESHATAR
6
CONTINUOUS
62
0
100
AcDbBlockReference
39
0.
10
885117.89000000001
20
296824.58000000002
30
0.
2
Részletpont_kõ___I__rendû_
41
2.
42
2.
43
1.
50
0.
0
INSERT
5
731fc
100
AcDbEntity
8
ITR-7-FEKVESHATAR
6
CONTINUOUS
62
0
100
AcDbBlockReference
39
0.
10
885126.45999999996
20
296800.
30
0.
2
Belterület_határ
41
2.
42
2.
43
1.
50
289.19999999999999
0
INSERT
5
731fd
100
AcDbEntity
8
ITR-7-FEKVESHATAR
6
CONTINUOUS
62
0
100
AcDbBlockReference
39
0.
10
885326.89000000001
20
297086.78000000003
30
0.
2
Belterület_határ
41
2.
42
2.
43
1.
50
19.100000000000001
0
INSERT
5
731fe
100
AcDbEntity
8
ITR-7-FEKVESHATAR
6
CONTINUOUS
62
0
100
AcDbBlockReference
39
0.
10
885353.65000000002
20
297096.06
30
0.
2
Részletpont_kõ___I__rendû_
41
2.
42
2.
43
1.
50
0.
0
INSERT
5
731ff
100
AcDbEntity
8
ITR-7-FEKVESHATAR
6
CONTINUOUS
62
0
100
AcDbBlockReference
39
0.
10
885300.13
20
297077.51000000001
30
0.
2
Részletpont_kõ___I__rendû_
41
2.
42
2.
43
1.
50
0.
0
INSERT
5
73200
100
AcDbEntity
8
ITR-7-FEKVESHATAR
6
CONTINUOUS
62
0
100
AcDbBlockReference
39
0.
10
885422.78000000003
20
296939.70000000001
30
0.
2
Belterület_határ
41
2.
42
2.
43
1.
50
284.30000000000001
0
INSERT
5
73201
100
AcDbEntity
8
ITR-7-FEKVESHATAR
6
CONTINUOUS
62
0
100
AcDbBlockReference
39
0.
10
885426.69999999995
20
296924.27000000002
30
0.
2
Részletpont_kõ___I__rendû_
41
2.
42
2.
43
1.
50
0.
0
INSERT
5
73202
100
AcDbEntity
8
ITR-7-FEKVESHATAR
6
CONTINUOUS
62
0
100
AcDbBlockReference
39
0.
10
885418.85999999999
20
296955.14000000001
30
0.
2
Részletpont_kõ___I__rendû_
41
2.
42
2.
43
1.
50
0.
0
INSERT
5
73203
100
AcDbEntity
8
ITR-7-FEKVESHATAR
6
CONTINUOUS
62
0
100
AcDbBlockReference
39
0.
10
885373.14000000001
20
296992.84000000003
30
0.
2
Belterület_határ
41
2.
42
2.
43
1.
50
20.899999999999999
0
INSERT
5
73204
100
AcDbEntity
8
ITR-7-FEKVESHATAR
6
CONTINUOUS
62
0
100
AcDbBlockReference
39
0.
10
885272.30000000005
20
296874.41999999998
30
0.
2
Belterület_határ
41
2.
42
2.
43
1.
50
17.899999999999999
0
INSERT
5
73205
100
AcDbEntity
8
ITR-7-FEKVESHATAR
6
CONTINUOUS
62
0
100
AcDbBlockReference
39
0.
10
885389.25
20
296999.
30
0.
2
Részletpont_kõ___I__rendû_
41
2.
42
2.
43
1.
50
0.
0
INSERT
5
73206
100
AcDbEntity
8
ITR-7-FEKVESHATAR
6
CONTINUOUS
62
0
100
AcDbBlockReference
39
0.
10
885357.03000000003
20
296986.67999999999
30
0.
2
Részletpont_kõ___I__rendû_
41
2.
42
2.
43
1.
50
0.
0
INSERT
5
73207
100
AcDbEntity
8
ITR-7-FEKVESHATAR
6
CONTINUOUS
62
0
100
AcDbBlockReference
39
0.
10
885161.08999999997
20
296700.78999999998
30
0.
2
Részletpont_kõ___I__rendû_
41
2.
42
2.
43
1.
50
0.
0
INSERT
5
73208
100
AcDbEntity
8
ITR-7-FEKVESHATAR
6
CONTINUOUS
62
0
100
AcDbBlockReference
39
0.
10
885098.43000000005
20
296681.47999999998
30
0.
2
Belterület_határ
41
2.
42
2.
43
1.
50
17.100000000000001
0
INSERT
5
73209
100
AcDbEntity
8
ITR-7-FEKVESHATAR
6
CONTINUOUS
62
0
100
AcDbBlockReference
39
0.
10
884886.32999999996
20
297698.08000000002
30
0.
2
Részletpont_kõ___I__rendû_
41
2.
42
2.
43
1.
50
0.
0
INSERT
5
7320a
100
AcDbEntity
8
ITR-7-FEKVESHATAR
6
CONTINUOUS
62
0
100
AcDbBlockReference
39
0.
10
884857.18000000005
20
297797.35999999999
30
0.
2
Belterület_határ
41
2.
42
2.
43
1.
50
286.39999999999998
0
INSERT
5
7320b
100
AcDbEntity
8
ITR-7-FEKVESHATAR
6
CONTINUOUS
62
0
100
AcDbBlockReference
39
0.
10
883533.77000000002
20
297899.12
30
0.
2
Részletpont_kõ___I__rendû_
41
2.
42
2.
43
1.
50
0.
0
INSERT
5
7320c
100
AcDbEntity
8
ITR-7-FEKVESHATAR
6
CONTINUOUS
62
0
100
AcDbBlockReference
39
0.
10
883512.89000000001
20
297893.59999999998
30
0.
2
Részletpont_kõ___I__rendû_
41
2.
42
2.
43
1.
50
0.
0
INSERT
5
7320d
100
AcDbEntity
8
ITR-7-FEKVESHATAR
6
CONTINUOUS
62
0
100
AcDbBlockReference
39
0.
10
883530.88
20
297914.69
30
0.
2
Belterület_határ
41
2.
42
2.
43
1.
50
100.5
0
INSERT
5
7320e
100
AcDbEntity
8
ITR-7-FEKVESHATAR
6
CONTINUOUS
62
0
100
AcDbBlockReference
39
0.
10
883499.60999999999
20
298083.06
30
0.
2
Részletpont_kõ___I__rendû_
41
2.
42
2.
43
1.
50
0.
0
INSERT
5
7320f
100
AcDbEntity
8
ITR-7-FEKVESHATAR
6
CONTINUOUS
62
0
100
AcDbBlockReference
39
0.
10
883739.18999999994
20
298160.57000000001
30
0.
2
Részletpont_kõ___I__rendû_
41
2.
42
2.
43
1.
50
0.
0
INSERT
5
73210
100
AcDbEntity
8
ITR-7-FEKVESHATAR
6
CONTINUOUS
62
0
100
AcDbBlockReference
39
0.
10
883732.14000000001
20
298069.14000000001
30
0.
2
Részletpont_kõ___I__rendû_
41
2.
42
2.
43
1.
50
0.
0
INSERT
5
73211
100
AcDbEntity
8
ITR-7-FEKVESHATAR
6
CONTINUOUS
62
0
100
AcDbBlockReference
39
0.
10
883619.40000000002
20
298121.82000000001
30
0.
2
Belterület_határ
41
2.
42
2.
43
1.
50
17.899999999999999
0
INSERT
5
73212
100
AcDbEntity
8
ITR-7-FEKVESHATAR
6
CONTINUOUS
62
0
100
AcDbBlockReference
39
0.
10
885305.5
20
297235.28999999998
30
0.
2
Belterület_határ
41
2.
42
2.
43
1.
50
289.10000000000002
0
INSERT
5
73213
100
AcDbEntity
8
ITR-7-FEKVESHATAR
6
CONTINUOUS
62
0
100
AcDbBlockReference
39
0.
10
885300.38
20
297250.09000000003
30
0.
2
Részletpont_kõ___I__rendû_
41
2.
42
2.
43
1.
50
0.
0
INSERT
5
73214
100
AcDbEntity
8
ITR-7-FEKVESHATAR
6
CONTINUOUS
62
0
100
AcDbBlockReference
39
0.
10
884128.83999999997
20
298023.90999999997
30
0.
2
Belterület_határ
41
2.
42
2.
43
1.
50
17.199999999999999
0
INSERT
5
73215
100
AcDbEntity
8
ITR-7-FEKVESHATAR
6
CONTINUOUS
62
0
100
AcDbBlockReference
39
0.
10
886510.19999999995
20
297050.15000000002
30
0.
2
Részletpont_kõ___I__rendû_
41
2.
42
2.
43
1.
50
0.
0
INSERT
5
73216
100
AcDbEntity
8
ITR-7-FEKVESHATAR
6
CONTINUOUS
62
0
100
AcDbBlockReference
39
0.
10
886523.90000000002
20
297171.40000000002
30
0.
2
Zártkert_határ
41
2.
42
2.
43
1.
50
10.300000000000001
0
INSERT
5
73217
100
AcDbEntity
8
ITR-7-FEKVESHATAR
6
CONTINUOUS
62
0
100
AcDbBlockReference
39
0.
10
886532.01000000001
20
297027.25
30
0.
2
Zártkert_határ
41
2.
42
2.
43
1.
50
313.60000000000002
0
INSERT
5
73218
100
AcDbEntity
8
ITR-7-FEKVESHATAR
6
CONTINUOUS
62
0
100
AcDbBlockReference
39
0.
10
886476.56000000006
20
297121.13
30
0.
2
Részletpont_kõ___I__rendû_
41
2.
42
2.
43
1.
50
0.
0
INSERT
5
73219
100
AcDbEntity
8
ITR-7-FEKVESHATAR
6
CONTINUOUS
62
0
100
AcDbBlockReference
39
0.
10
886508.72999999998
20
297111.98999999999
30
0.
2
Részletpont_kõ___I__rendû_
41
2.
42
2.
43
1.
50
0.
0
INSERT
5
7321a
100
AcDbEntity
8
ITR-7-FEKVESHATAR
6
CONTINUOUS
62
0
100
AcDbBlockReference
39
0.
10
886463.84999999998
20
297160.5
30
0.
2
Részletpont_kõ___I__rendû_
41
2.
42
2.
43
1.
50
0.
0
INSERT
5
7321b
100
AcDbEntity
8
ITR-7-FEKVESHATAR
6
CONTINUOUS
62
0
100
AcDbBlockReference
39
0.
10
882211.14000000001
20
296983.34999999998
30
0.
2
Részletpont_kõ___I__rendû_
41
2.
42
2.
43
1.
50
0.
0
INSERT
5
7321c
100
AcDbEntity
8
ITR-7-FEKVESHATAR
6
CONTINUOUS
62
0
100
AcDbBlockReference
39
0.
10
882244.58999999997
20
296995.25
30
0.
2
Zártkert_határ
41
2.
42
2.
43
1.
50
19.600000000000001
0
INSERT
5
7321d
100
AcDbEntity
8
ITR-7-FEKVESHATAR
6
CONTINUOUS
62
0
100
AcDbBlockReference
39
0.
10
882248.95999999996
20
296984.08000000002
30
0.
2
Zártkert_határ
41
2.
42
2.
43
1.
50
16.399999999999999
0
INSERT
5
7321e
100
AcDbEntity
8
ITR-7-FEKVESHATAR
6
CONTINUOUS
62
0
100
AcDbBlockReference
39
0.
10
882304.15000000002
20
296879.46000000002
30
0.
2
Részletpont_kõ___I__rendû_
41
2.
42
2.
43
1.
50
0.
0
INSERT
5
7321f
100
AcDbEntity
8
ITR-7-FEKVESHATAR
6
CONTINUOUS
62
0
100
AcDbBlockReference
39
0.
10
882281.88
20
296993.76000000001
30
0.
2
Részletpont_kõ___I__rendû_
41
2.
42
2.
43
1.
50
0.
0
INSERT
5
73220
100
AcDbEntity
8
ITR-7-FEKVESHATAR
6
CONTINUOUS
62
0
100
AcDbBlockReference
39
0.
10
882216.03000000003
20
296974.40999999997
30
0.
2
Részletpont_kõ___I__rendû_
41
2.
42
2.
43
1.
50
0.
0
INSERT
5
73221
100
AcDbEntity
8
ITR-7-FEKVESHATAR
6
CONTINUOUS
62
0
100
AcDbBlockReference
39
0.
10
882318.80000000005
20
296828.71999999997
30
0.
2
Részletpont_kõ___I__rendû_
41
2.
42
2.
43
1.
50
0.
0
INSERT
5
73222
100
AcDbEntity
8
ITR-7-FEKVESHATAR
6
CONTINUOUS
62
0
100
AcDbBlockReference
39
0.
10
882153.25
20
297299.91999999998
30
0.
2
Részletpont_kõ___I__rendû_
41
2.
42
2.
43
1.
50
0.
0
INSERT
5
73223
100
AcDbEntity
8
ITR-7-FEKVESHATAR
6
CONTINUOUS
62
0
100
AcDbBlockReference
39
0.
10
882162.82999999996
20
297267.54999999999
30
0.
2
Részletpont_kõ___I__rendû_
41
2.
42
2.
43
1.
50
0.
0
INSERT
5
73224
100
AcDbEntity
8
ITR-7-FEKVESHATAR
6
CONTINUOUS
62
0
100
AcDbBlockReference
39
0.
10
882168.65000000002
20
297230.20000000001
30
0.
2
Részletpont_kõ___I__rendû_
41
2.
42
2.
43
1.
50
0.
0
INSERT
5
73225
100
AcDbEntity
8
ITR-7-FEKVESHATAR
6
CONTINUOUS
62
0
100
AcDbBlockReference
39
0.
10
882187.5
20
297319.62
30
0.
2
Részletpont_kõ___I__rendû_
41
2.
42
2.
43
1.
50
0.
0
INSERT
5
73226
100
AcDbEntity
8
ITR-7-FEKVESHATAR
6
CONTINUOUS
62
0
100
AcDbBlockReference
39
0.
10
882170.38
20
297309.77000000002
30
0.
2
Zártkert_határ
41
2.
42
2.
43
1.
50
29.899999999999999
0
INSERT
5
73227
100
AcDbEntity
8
ITR-7-FEKVESHATAR
6
CONTINUOUS
62
0
100
AcDbBlockReference
39
0.
10
882278.04000000004
20
297007.15000000002
30
0.
2
Részletpont_kõ___I__rendû_
41
2.
42
2.
43
1.
50
0.
0
INSERT
5
73228
100
AcDbEntity
8
ITR-7-FEKVESHATAR
6
CONTINUOUS
62
0
100
AcDbBlockReference
39
0.
10
882226.81999999995
20
297112.92999999999
30
0.
2
Részletpont_kõ___I__rendû_
41
2.
42
2.
43
1.
50
0.
0
INSERT
5
73229
100
AcDbEntity
8
ITR-7-FEKVESHATAR
6
CONTINUOUS
62
0
100
AcDbBlockReference
39
0.
10
882218.10999999999
20
297130.47999999998
30
0.
2
Zártkert_határ
41
2.
42
2.
43
1.
50
116.40000000000001
0
INSERT
5
7322a
100
AcDbEntity
8
ITR-7-FEKVESHATAR
6
CONTINUOUS
62
0
100
AcDbBlockReference
39
0.
10
882240.35999999999
20
297137.16999999998
30
0.
2
Zártkert_határ
41
2.
42
2.
43
1.
50
286.19999999999999
0
INSERT
5
7322b
100
AcDbEntity
8
ITR-7-FEKVESHATAR
6
CONTINUOUS
62
0
100
AcDbBlockReference
39
0.
10
882117.42000000004
20
297561.35999999999
30
0.
2
Zártkert_határ
41
2.
42
2.
43
1.
50
289.39999999999998
0
INSERT
5
7322c
100
AcDbEntity
8
ITR-7-FEKVESHATAR
6
CONTINUOUS
62
0
100
AcDbBlockReference
39
0.
10
882111.73999999999
20
297577.46999999997
30
0.
2
Részletpont_kõ___I__rendû_
41
2.
42
2.
43
1.
50
0.
0
INSERT
5
7322d
100
AcDbEntity
8
ITR-7-FEKVESHATAR
6
CONTINUOUS
62
0
100
AcDbBlockReference
39
0.
10
882140.80000000005
20
297487.09999999998
30
0.
2
Részletpont_kõ___I__rendû_
41
2.
42
2.
43
1.
50
0.
0
INSERT
5
7322e
100
AcDbEntity
8
ITR-7-FEKVESHATAR
6
CONTINUOUS
62
0
100
AcDbBlockReference
39
0.
10
882119.19999999995
20
297580.15999999997
30
0.
2
Részletpont_kõ___I__rendû_
41
2.
42
2.
43
1.
50
0.
0
INSERT
5
7322f
100
AcDbEntity
8
ITR-7-FEKVESHATAR
6
CONTINUOUS
62
0
100
AcDbBlockReference
39
0.
10
882099.39000000001
20
297573.09999999998
30
0.
2
Részletpont_kõ___I__rendû_
41
2.
42
2.
43
1.
50
0.
0
INSERT
5
73230
100
AcDbEntity
8
ITR-7-FEKVESHATAR
6
CONTINUOUS
62
0
100
AcDbBlockReference
39
0.
10
882123.10999999999
20
297545.26000000001
30
0.
2
Részletpont_kõ___I__rendû_
41
2.
42
2.
43
1.
50
0.
0
INSERT
5
73231
100
AcDbEntity
8
ITR-7-FEKVESHATAR
6
CONTINUOUS
62
0
100
AcDbBlockReference
39
0.
10
882130.23999999999
20
297522.63
30
0.
2
Részletpont_kõ___I__rendû_
41
2.
42
2.
43
1.
50
0.
0
INSERT
5
73232
100
AcDbEntity
8
ITR-7-FEKVESHATAR
6
CONTINUOUS
62
0
100
AcDbBlockReference
39
0.
10
882131.46999999997
20
297484.20000000001
30
0.
2
Részletpont_kõ___I__rendû_
41
2.
42
2.
43
1.
50
0.
0
INSERT
5
73233
100
AcDbEntity
8
ITR-7-FEKVESHATAR
6
CONTINUOUS
62
0
100
AcDbBlockReference
39
0.
10
882007.08999999997
20
297801.07000000001
30
0.
2
Részletpont_kõ___I__rendû_
41
2.
42
2.
43
1.
50
0.
0
INSERT
5
73234
100
AcDbEntity
8
ITR-7-FEKVESHATAR
6
CONTINUOUS
62
0
100
AcDbBlockReference
39
0.
10
882003.04000000004
20
297816.40999999997
30
0.
2
Zártkert_határ
41
2.
42
2.
43
1.
50
284.80000000000001
0
INSERT
5
73235
100
AcDbEntity
8
ITR-7-FEKVESHATAR
6
CONTINUOUS
62
0
100
AcDbBlockReference
39
0.
10
882045.93000000005
20
297882.37
30
0.
2
Részletpont_kõ___I__rendû_
41
2.
42
2.
43
1.
50
0.
0
INSERT
5
73236
100
AcDbEntity
8
ITR-7-FEKVESHATAR
6
CONTINUOUS
62
0
100
AcDbBlockReference
39
0.
10
882060.69999999995
20
297800.10999999999
30
0.
2
Részletpont_kõ___I__rendû_
41
2.
42
2.
43
1.
50
0.
0
INSERT
5
73237
100
AcDbEntity
8
ITR-7-FEKVESHATAR
6
CONTINUOUS
62
0
100
AcDbBlockReference
39
0.
10
882053.31999999995
20
297841.23999999999
30
0.
2
Zártkert_határ
41
2.
42
2.
43
1.
50
280.19999999999999
0
INSERT
5
73238
100
AcDbEntity
8
ITR-7-FEKVESHATAR
6
CONTINUOUS
62
0
100
AcDbBlockReference
39
0.
10
882041.85999999999
20
297902.67999999999
30
0.
2
Részletpont_kõ___I__rendû_
41
2.
42
2.
43
1.
50
0.
0
INSERT
5
73239
100
AcDbEntity
8
ITR-7-FEKVESHATAR
6
CONTINUOUS
62
0
100
AcDbBlockReference
39
0.
10
882088.03000000003
20
297655.40999999997
30
0.
2
Részletpont_kõ___I__rendû_
41
2.
42
2.
43
1.
50
0.
0
INSERT
5
7323a
100
AcDbEntity
8
ITR-7-FEKVESHATAR
6
CONTINUOUS
62
0
100
AcDbBlockReference
39
0.
10
882082.34999999998
20
297685.29999999999
30
0.
2
Részletpont_kõ___I__rendû_
41
2.
42
2.
43
1.
50
0.
0
INSERT
5
7323b
100
AcDbEntity
8
ITR-7-FEKVESHATAR
6
CONTINUOUS
62
0
100
AcDbBlockReference
39
0.
10
882065.43999999994
20
297681.53000000003
30
0.
2
Részletpont_kõ___I__rendû_
41
2.
42
2.
43
1.
50
0.
0
INSERT
5
7323c
100
AcDbEntity
8
ITR-7-FEKVESHATAR
6
CONTINUOUS
62
0
100
AcDbBlockReference
39
0.
10
882046.25
20
297718.21999999997
30
0.
2
Részletpont_kõ___I__rendû_
41
2.
42
2.
43
1.
50
0.
0
INSERT
5
7323d
100
AcDbEntity
8
ITR-7-FEKVESHATAR
6
CONTINUOUS
62
0
100
AcDbBlockReference
39
0.
10
882065.19999999995
20
297778.77000000002
30
0.
2
Részletpont_kõ___I__rendû_
41
2.
42
2.
43
1.
50
0.
0
INSERT
5
7323e
100
AcDbEntity
8
ITR-7-FEKVESHATAR
6
CONTINUOUS
62
0
100
AcDbBlockReference
39
0.
10
882017.28000000003
20
297785.54999999999
30
0.
2
Részletpont_kõ___I__rendû_
41
2.
42
2.
43
1.
50
0.
0
INSERT
5
7323f
100
AcDbEntity
8
ITR-7-FEKVESHATAR
6
CONTINUOUS
62
0
100
AcDbBlockReference
39
0.
10
882095.68000000005
20
297634.26000000001
30
0.
2
Részletpont_kõ___I__rendû_
41
2.
42
2.
43
1.
50
0.
0
INSERT
5
73240
100
AcDbEntity
8
ITR-7-FEKVESHATAR
6
CONTINUOUS
62
0
100
AcDbBlockReference
39
0.
10
882073.64000000001
20
297655.33000000002
30
0.
2
Zártkert_határ
41
2.
42
2.
43
1.
50
107.40000000000001
0
INSERT
5
73241
100
AcDbEntity
8
ITR-7-FEKVESHATAR
6
CONTINUOUS
62
0
100
AcDbBlockReference
39
0.
10
881995.93999999994
20
297862.95000000001
30
0.
2
Részletpont_kõ___I__rendû_
41
2.
42
2.
43
1.
50
0.
0
INSERT
5
73242
100
AcDbEntity
8
ITR-7-FEKVESHATAR
6
CONTINUOUS
62
0
100
AcDbBlockReference
39
0.
10
881999.
20
297831.75
30
0.
2
Részletpont_kõ___I__rendû_
41
2.
42
2.
43
1.
50
0.
0
INSERT
5
73243
100
AcDbEntity
8
ITR-7-FEKVESHATAR
6
CONTINUOUS
62
0
100
AcDbBlockReference
39
0.
10
881995.46999999997
20
297881.10999999999
30
0.
2
Részletpont_kõ___I__rendû_
41
2.
42
2.
43
1.
50
0.
0
INSERT
5
73244
100
AcDbEntity
8
ITR-7-FEKVESHATAR
6
CONTINUOUS
62
0
100
AcDbBlockReference
39
0.
10
881991.07999999996
20
297880.64000000001
30
0.
2
Részletpont_kõ___I__rendû_
41
2.
42
2.
43
1.
50
0.
0
INSERT
5
73245
100
AcDbEntity
8
ITR-7-FEKVESHATAR
6
CONTINUOUS
62
0
100
AcDbBlockReference
39
0.
10
882171.40000000002
20
296679.46999999997
30
0.
2
Részletpont_kõ___I__rendû_
41
2.
42
2.
43
1.
50
0.
0
INSERT
5
73246
100
AcDbEntity
8
ITR-7-FEKVESHATAR
6
CONTINUOUS
62
0
100
AcDbBlockReference
39
0.
10
882408.
20
296425.08000000002
30
0.
2
Részletpont_kõ___I__rendû_
41
2.
42
2.
43
1.
50
0.
0
INSERT
5
73247
100
AcDbEntity
8
ITR-7-FEKVESHATAR
6
CONTINUOUS
62
0
100
AcDbBlockReference
39
0.
10
882418.73999999999
20
296406.73999999999
30
0.
2
Zártkert_határ
41
2.
42
2.
43
1.
50
300.30000000000001
0
INSERT
5
73248
100
AcDbEntity
8
ITR-7-FEKVESHATAR
6
CONTINUOUS
62
0
100
AcDbBlockReference
39
0.
10
882450.25
20
296423.60999999999
30
0.
2
Zártkert_határ
41
2.
42
2.
43
1.
50
106.5
0
INSERT
5
73249
100
AcDbEntity
8
ITR-7-FEKVESHATAR
6
CONTINUOUS
62
0
100
AcDbBlockReference
39
0.
10
882344.23999999999
20
296698.78999999998
30
0.
2
Részletpont_kõ___I__rendû_
41
2.
42
2.
43
1.
50
0.
0
INSERT
5
7324a
100
AcDbEntity
8
ITR-7-FEKVESHATAR
6
CONTINUOUS
62
0
100
AcDbBlockReference
39
0.
10
882339.88
20
296721.06
30
0.
2
Zártkert_határ
41
2.
42
2.
43
1.
50
101.09999999999999
0
INSERT
5
7324b
100
AcDbEntity
8
ITR-7-FEKVESHATAR
6
CONTINUOUS
62
0
100
AcDbBlockReference
39
0.
10
882212.40000000002
20
296684.06
30
0.
2
Zártkert_határ
41
2.
42
2.
43
1.
50
6.4000000000000004
0
INSERT
5
7324c
100
AcDbEntity
8
ITR-7-FEKVESHATAR
6
CONTINUOUS
62
0
100
AcDbBlockReference
39
0.
10
882361.31999999995
20
296724.76000000001
30
0.
2
Zártkert_határ
41
2.
42
2.
43
1.
50
286.39999999999998
0
INSERT
5
7324d
100
AcDbEntity
8
ITR-7-FEKVESHATAR
6
CONTINUOUS
62
0
100
AcDbBlockReference
39
0.
10
882382.16000000003
20
296449.58000000002
30
0.
2
Részletpont_kõ___I__rendû_
41
2.
42
2.
43
1.
50
0.
0
INSERT
5
7324e
100
AcDbEntity
8
ITR-7-FEKVESHATAR
6
CONTINUOUS
62
0
100
AcDbBlockReference
39
0.
10
882266.75
20
296467.90999999997
30
0.
2
Részletpont_kõ___I__rendû_
41
2.
42
2.
43
1.
50
0.
0
INSERT
5
7324f
100
AcDbEntity
8
ITR-7-FEKVESHATAR
6
CONTINUOUS
62
0
100
AcDbBlockReference
39
0.
10
882327.17000000004
20
296432.67999999999
30
0.
2
Részletpont_kõ___I__rendû_
41
2.
42
2.
43
1.
50
0.
0
INSERT
5
73250
100
AcDbEntity
8
ITR-7-FEKVESHATAR
6
CONTINUOUS
62
0
100
AcDbBlockReference
39
0.
10
882393.94999999995
20
296422.33000000002
30
0.
2
Részletpont_kõ___I__rendû_
41
2.
42
2.
43
1.
50
0.
0
INSERT
5
73251
100
AcDbEntity
8
ITR-7-FEKVESHATAR
6
CONTINUOUS
62
0
100
AcDbBlockReference
39
0.
10
882301.30000000005
20
296447.76000000001
30
0.
2
Zártkert_határ
41
2.
42
2.
43
1.
50
329.80000000000001
0
INSERT
5
73252
100
AcDbEntity
8
ITR-7-FEKVESHATAR
6
CONTINUOUS
62
0
100
AcDbBlockReference
39
0.
10
882429.46999999997
20
296388.40999999997
30
0.
2
Részletpont_kõ___I__rendû_
41
2.
42
2.
43
1.
50
0.
0
INSERT
5
73253
100
AcDbEntity
8
ITR-7-FEKVESHATAR
6
CONTINUOUS
62
0
100
AcDbBlockReference
39
0.
10
882458.13
20
296396.92999999999
30
0.
2
Részletpont_kõ___I__rendû_
41
2.
42
2.
43
1.
50
0.
0
INSERT
5
73254
100
AcDbEntity
8
ITR-7-FEKVESHATAR
6
CONTINUOUS
62
0
100
AcDbBlockReference
39
0.
10
884288.04000000004
20
295710.88
30
0.
2
Részletpont_kõ___I__rendû_
41
2.
42
2.
43
1.
50
0.
0
INSERT
5
73255
100
AcDbEntity
8
ITR-7-FEKVESHATAR
6
CONTINUOUS
62
0
100
AcDbBlockReference
39
0.
10
884304.06000000006
20
295716.89000000001
30
0.
2
Zártkert_határ
41
2.
42
2.
43
1.
50
20.600000000000001
0
INSERT
5
73256
100
AcDbEntity
8
ITR-7-FEKVESHATAR
6
CONTINUOUS
62
0
100
AcDbBlockReference
39
0.
10
884310.59999999998
20
295642.75
30
0.
2
Zártkert_határ
41
2.
42
2.
43
1.
50
108.3
0
INSERT
5
73257
100
AcDbEntity
8
ITR-7-FEKVESHATAR
6
CONTINUOUS
62
0
100
AcDbBlockReference
39
0.
10
884494.43999999994
20
295788.33000000002
30
0.
2
Zártkert_határ
41
2.
42
2.
43
1.
50
20.600000000000001
0
INSERT
5
73258
100
AcDbEntity
8
ITR-7-FEKVESHATAR
6
CONTINUOUS
62
0
100
AcDbBlockReference
39
0.
10
884730.
20
295818.64000000001
30
0.
2
Zártkert_határ
41
2.
42
2.
43
1.
50
193.69999999999999
0
INSERT
5
73259
100
AcDbEntity
8
ITR-7-FEKVESHATAR
6
CONTINUOUS
62
0
100
AcDbBlockReference
39
0.
10
884749.82999999996
20
295805.04999999999
30
0.
2
Zártkert_határ
41
2.
42
2.
43
1.
50
273.
0
INSERT
5
7325a
100
AcDbEntity
8
ITR-7-FEKVESHATAR
6
CONTINUOUS
62
0
100
AcDbBlockReference
39
0.
10
884624.40000000002
20
295814.47999999998
30
0.
2
Zártkert_határ
41
2.
42
2.
43
1.
50
110.90000000000001
0
INSERT
5
7325b
100
AcDbEntity
8
ITR-7-FEKVESHATAR
6
CONTINUOUS
62
0
100
AcDbBlockReference
39
0.
10
884748.89000000001
20
295823.26000000001
30
0.
2
Részletpont_kõ___I__rendû_
41
2.
42
2.
43
1.
50
0.
0
INSERT
5
7325c
100
AcDbEntity
8
ITR-7-FEKVESHATAR
6
CONTINUOUS
62
0
100
AcDbBlockReference
39
0.
10
884616.82999999996
20
295834.25
30
0.
2
Részletpont_kõ___I__rendû_
41
2.
42
2.
43
1.
50
0.
0
INSERT
5
7325d
100
AcDbEntity
8
ITR-7-FEKVESHATAR
6
CONTINUOUS
62
0
100
AcDbBlockReference
39
0.
10
884752.95999999996
20
295744.62
30
0.
2
Részletpont_kõ___I__rendû_
41
2.
42
2.
43
1.
50
0.
0
INSERT
5
7325e
100
AcDbEntity
8
ITR-7-FEKVESHATAR
6
CONTINUOUS
62
0
100
AcDbBlockReference
39
0.
10
884768.48999999999
20
295656.29999999999
30
0.
2
Részletpont_kõ___I__rendû_
41
2.
42
2.
43
1.
50
0.
0
INSERT
5
7325f
100
AcDbEntity
8
ITR-7-FEKVESHATAR
6
CONTINUOUS
62
0
100
AcDbBlockReference
39
0.
10
884631.95999999996
20
295794.70000000001
30
0.
2
Részletpont_kõ___I__rendû_
41
2.
42
2.
43
1.
50
0.
0
INSERT
5
73260
100
AcDbEntity
8
ITR-7-FEKVESHATAR
6
CONTINUOUS
62
0
100
AcDbBlockReference
39
0.
10
884772.43999999994
20
295630.78000000003
30
0.
2
Zártkert_határ
41
2.
42
2.
43
1.
50
98.799999999999997
0
INSERT
5
73261
100
AcDbEntity
8
ITR-7-FEKVESHATAR
6
CONTINUOUS
62
0
100
AcDbBlockReference
39
0.
10
886585.26000000001
20
296894.07000000001
30
0.
2
Részletpont_kõ___I__rendû_
41
2.
42
2.
43
1.
50
0.
0
INSERT
5
73262
100
AcDbEntity
8
ITR-7-FEKVESHATAR
6
CONTINUOUS
62
0
100
AcDbBlockReference
39
0.
10
886701.26000000001
20
296896.01000000001
30
0.
2
Zártkert_határ
41
2.
42
2.
43
1.
50
12.
0
INSERT
5
73263
100
AcDbEntity
8
ITR-7-FEKVESHATAR
6
CONTINUOUS
62
0
100
AcDbBlockReference
39
0.
10
886760.65000000002
20
296968.28000000003
30
0.
2
Részletpont_kõ___I__rendû_
41
2.
42
2.
43
1.
50
0.
0
INSERT
5
73264
100
AcDbEntity
8
ITR-7-FEKVESHATAR
6
CONTINUOUS
62
0
100
AcDbBlockReference
39
0.
10
886732.38
20
297215.76000000001
30
0.
2
Zártkert_határ
41
2.
42
2.
43
1.
50
155.59999999999999
0
INSERT
5
73265
100
AcDbEntity
8
ITR-7-FEKVESHATAR
6
CONTINUOUS
62
0
100
AcDbBlockReference
39
0.
10
886695.80000000005
20
297232.38
30
0.
2
Részletpont_kõ___I__rendû_
41
2.
42
2.
43
1.
50
0.
0
INSERT
5
73266
100
AcDbEntity
8
ITR-7-FEKVESHATAR
6
CONTINUOUS
62
0
100
AcDbBlockReference
39
0.
10
886752.80000000005
20
297206.47999999998
30
0.
2
Részletpont_kõ___I__rendû_
41
2.
42
2.
43
1.
50
0.
0
INSERT
5
73267
100
AcDbEntity
8
ITR-7-FEKVESHATAR
6
CONTINUOUS
62
0
100
AcDbBlockReference
39
0.
10
886644.18000000005
20
297203.65999999997
30
0.
2
Részletpont_kõ___I__rendû_
41
2.
42
2.
43
1.
50
0.
0
INSERT
5
73268
100
AcDbEntity
8
ITR-7-FEKVESHATAR
6
CONTINUOUS
62
0
100
AcDbBlockReference
39
0.
10
886839.77000000002
20
296984.98999999999
30
0.
2
Zártkert_határ
41
2.
42
2.
43
1.
50
11.9
0
INSERT
5
73269
100
AcDbEntity
8
ITR-7-FEKVESHATAR
6
CONTINUOUS
62
0
100
AcDbBlockReference
39
0.
10
886908.62
20
297129.44
30
0.
2
Zártkert_határ
41
2.
42
2.
43
1.
50
168.40000000000001
0
INSERT
5
7326a
100
AcDbEntity
8
ITR-7-FEKVESHATAR
6
CONTINUOUS
62
0
100
AcDbBlockReference
39
0.
10
886829.22999999998
20
297145.79999999999
30
0.
2
Részletpont_kõ___I__rendû_
41
2.
42
2.
43
1.
50
0.
0
LINE
5
7326b
100
AcDbEntity
8
ITR-7-FEKVESHATAR
6
0_18_-_Folyamatos_
62
7
100
AcDbLine
39
0.
10
883469.48999999999
20
297049.10999999999
30
0.
11
883468.93000000005
21
297051.25
31
0.
0
LINE
5
7326c
100
AcDbEntity
8
ITR-7-FEKVESHATAR
6
0_18_-_Folyamatos_
62
7
100
AcDbLine
39
0.
10
883468.93000000005
20
297051.25
30
0.
11
883463.04000000004
21
297073.65000000002
31
0.
0
LINE
5
7326d
100
AcDbEntity
8
ITR-7-FEKVESHATAR
6
0_18_-_Folyamatos_
62
7
100
AcDbLine
39
0.
10
883508.28000000003
20
297006.07000000001
30
0.
11
883495.73999999999
21
296999.71999999997
31
0.
0
LINE
5
7326e
100
AcDbEntity
8
ITR-7-FEKVESHATAR
6
0_18_-_Folyamatos_
62
7
100
AcDbLine
39
0.
10
883508.28000000003
20
297006.07000000001
30
0.
11
883508.78000000003
21
297005.33000000002
31
0.
0
LINE
5
7326f
100
AcDbEntity
8
ITR-7-FEKVESHATAR
6
0_18_-_Folyamatos_
62
7
100
AcDbLine
39
0.
10
883508.78000000003
20
297005.33000000002
30
0.
11
883528.95999999996
21
296975.69
31
0.
0
LINE
5
73270
100
AcDbEntity
8
ITR-7-FEKVESHATAR
6
0_18_-_Folyamatos_
62
7
100
AcDbLine
39
0.
10
883481.20999999996
20
297017.62
30
0.
11
883479.69999999995
21
297021.66999999998
31
0.
0
LINE
5
73271
100
AcDbEntity
8
ITR-7-FEKVESHATAR
6
0_18_-_Folyamatos_
62
7
100
AcDbLine
39
0.
10
883441.96999999997
20
297153.76000000001
30
0.
11
883434.01000000001
21
297184.02000000002
31
0.
0
LINE
5
73272
100
AcDbEntity
8
ITR-7-FEKVESHATAR
6
0_18_-_Folyamatos_
62
7
100
AcDbLine
39
0.
10
883441.96999999997
20
297153.76000000001
30
0.
11
883447.66000000003
21
297132.12
31
0.
0
LINE
5
73273
100
AcDbEntity
8
ITR-7-FEKVESHATAR
6
0_18_-_Folyamatos_
62
7
100
AcDbLine
39
0.
10
883479.69999999995
20
297021.66999999998
30
0.
11
883469.48999999999
21
297049.10999999999
31
0.
0
LINE
5
73274
100
AcDbEntity
8
ITR-7-FEKVESHATAR
6
0_18_-_Folyamatos_
62
7
100
AcDbLine
39
0.
10
883463.04000000004
20
297073.65000000002
30
0.
11
883459.84999999998
21
297085.75
31
0.
0
LINE
5
73275
100
AcDbEntity
8
ITR-7-FEKVESHATAR
6
0_18_-_Folyamatos_
62
7
100
AcDbLine
39
0.
10
883447.66000000003
20
297132.12
30
0.
11
883459.84999999998
21
297085.75
31
0.
0
LINE
5
73276
100
AcDbEntity
8
ITR-7-FEKVESHATAR
6
0_18_-_Folyamatos_
62
7
100
AcDbLine
39
0.
10
883434.01000000001
20
297184.02000000002
30
0.
11
883422.34999999998
21
297228.33000000002
31
0.
0
LINE
5
73277
100
AcDbEntity
8
ITR-7-FEKVESHATAR
6
0_18_-_Folyamatos_
62
7
100
AcDbLine
39
0.
10
883574.83999999997
20
296880.78000000003
30
0.
11
883566.81999999995
21
296899.79999999999
31
0.
0
LINE
5
73278
100
AcDbEntity
8
ITR-7-FEKVESHATAR
6
0_18_-_Folyamatos_
62
7
100
AcDbLine
39
0.
10
883495.73999999999
20
296999.71999999997
30
0.
11
883481.20999999996
21
297017.62
31
0.
0
LINE
5
73279
100
AcDbEntity
8
ITR-7-FEKVESHATAR
6
0_18_-_Folyamatos_
62
7
100
AcDbLine
39
0.
10
883592.48999999999
20
296845.10999999999
30
0.
11
883600.04000000004
21
296831.65000000002
31
0.
0
LINE
5
7327a
100
AcDbEntity
8
ITR-7-FEKVESHATAR
6
0_18_-_Folyamatos_
62
7
100
AcDbLine
39
0.
10
883539.77000000002
20
296959.79999999999
30
0.
11
883528.95999999996
21
296975.69
31
0.
0
LINE
5
7327b
100
AcDbEntity
8
ITR-7-FEKVESHATAR
6
0_18_-_Folyamatos_
62
7
100
AcDbLine
39
0.
10
883544.41000000003
20
296952.97999999998
30
0.
11
883539.77000000002
21
296959.79999999999
31
0.
0
LINE
5
7327c
100
AcDbEntity
8
ITR-7-FEKVESHATAR
6
0_18_-_Folyamatos_
62
7
100
AcDbLine
39
0.
10
883544.41000000003
20
296952.97999999998
30
0.
11
883548.35999999999
21
296943.60999999999
31
0.
0
LINE
5
7327d
100
AcDbEntity
8
ITR-7-FEKVESHATAR
6
0_18_-_Folyamatos_
62
7
100
AcDbLine
39
0.
10
883548.35999999999
20
296943.60999999999
30
0.
11
883555.60999999999
21
296926.40999999997
31
0.
0
LINE
5
7327e
100
AcDbEntity
8
ITR-7-FEKVESHATAR
6
0_18_-_Folyamatos_
62
7
100
AcDbLine
39
0.
10
883581.92000000004
20
296863.97999999998
30
0.
11
883583.94999999995
21
296860.35999999999
31
0.
0
LINE
5
7327f
100
AcDbEntity
8
ITR-7-FEKVESHATAR
6
0_18_-_Folyamatos_
62
7
100
AcDbLine
39
0.
10
883581.92000000004
20
296863.97999999998
30
0.
11
883574.83999999997
21
296880.78000000003
31
0.
0
LINE
5
73280
100
AcDbEntity
8
ITR-7-FEKVESHATAR
6
0_18_-_Folyamatos_
62
7
100
AcDbLine
39
0.
10
883583.94999999995
20
296860.35999999999
30
0.
11
883592.48999999999
21
296845.10999999999
31
0.
0
LINE
5
73281
100
AcDbEntity
8
ITR-7-FEKVESHATAR
6
0_18_-_Folyamatos_
62
7
100
AcDbLine
39
0.
10
883555.60999999999
20
296926.40999999997
30
0.
11
883561.34999999998
21
296912.78999999998
31
0.
0
LINE
5
73282
100
AcDbEntity
8
ITR-7-FEKVESHATAR
6
0_18_-_Folyamatos_
62
7
100
AcDbLine
39
0.
10
883561.34999999998
20
296912.78999999998
30
0.
11
883566.81999999995
21
296899.79999999999
31
0.
0
LINE
5
73283
100
AcDbEntity
8
ITR-7-FEKVESHATAR
6
0_18_-_Folyamatos_
62
7
100
AcDbLine
39
0.
10
883615.39000000001
20
296804.84999999998
30
0.
11
883623.10999999999
21
296791.90000000002
31
0.
0
LINE
5
73284
100
AcDbEntity
8
ITR-7-FEKVESHATAR
6
0_18_-_Folyamatos_
62
7
100
AcDbLine
39
0.
10
883607.41000000003
20
296818.47999999998
30
0.
11
883609.73999999999
21
296814.33000000002
31
0.
0
LINE
5
73285
100
AcDbEntity
8
ITR-7-FEKVESHATAR
6
0_18_-_Folyamatos_
62
7
100
AcDbLine
39
0.
10
883609.73999999999
20
296814.33000000002
30
0.
11
883615.39000000001
21
296804.84999999998
31
0.
0
LINE
5
73286
100
AcDbEntity
8
ITR-7-FEKVESHATAR
6
0_18_-_Folyamatos_
62
7
100
AcDbLine
39
0.
10
883600.04000000004
20
296831.65000000002
30
0.
11
883607.41000000003
21
296818.47999999998
31
0.
0
LINE
5
73287
100
AcDbEntity
8
ITR-7-FEKVESHATAR
6
0_18_-_Folyamatos_
62
7
100
AcDbLine
39
0.
10
883643.81000000006
20
296761.78000000003
30
0.
11
883636.31999999995
21
296770.37
31
0.
0
LINE
5
73288
100
AcDbEntity
8
ITR-7-FEKVESHATAR
6
0_18_-_Folyamatos_
62
7
100
AcDbLine
39
0.
10
883623.10999999999
20
296791.90000000002
30
0.
11
883635.14000000001
21
296771.72999999998
31
0.
0
LINE
5
73289
100
AcDbEntity
8
ITR-7-FEKVESHATAR
6
0_18_-_Folyamatos_
62
7
100
AcDbLine
39
0.
10
883690.57999999996
20
296708.10999999999
30
0.
11
883677.10999999999
21
296697.
31
0.
0
LINE
5
7328a
100
AcDbEntity
8
ITR-7-FEKVESHATAR
6
0_18_-_Folyamatos_
62
7
100
AcDbLine
39
0.
10
883690.57999999996
20
296708.10999999999
30
0.
11
883681.69999999995
21
296718.29999999999
31
0.
0
LINE
5
7328b
100
AcDbEntity
8
ITR-7-FEKVESHATAR
6
0_18_-_Folyamatos_
62
7
100
AcDbLine
39
0.
10
883681.69999999995
20
296718.29999999999
30
0.
11
883673.84999999998
21
296727.29999999999
31
0.
0
LINE
5
7328c
100
AcDbEntity
8
ITR-7-FEKVESHATAR
6
0_18_-_Folyamatos_
62
7
100
AcDbLine
39
0.
10
883738.93999999994
20
296612.75
30
0.
11
883720.57999999996
21
296636.35999999999
31
0.
0
LINE
5
7328d
100
AcDbEntity
8
ITR-7-FEKVESHATAR
6
0_18_-_Folyamatos_
62
7
100
AcDbLine
39
0.
10
883738.93999999994
20
296612.75
30
0.
11
883749.75
21
296598.84999999998
31
0.
0
LINE
5
7328e
100
AcDbEntity
8
ITR-7-FEKVESHATAR
6
0_18_-_Folyamatos_
62
7
100
AcDbLine
39
0.
10
883706.96999999997
20
296653.84999999998
30
0.
11
883720.57999999996
21
296636.35999999999
31
0.
0
LINE
5
7328f
100
AcDbEntity
8
ITR-7-FEKVESHATAR
6
0_18_-_Folyamatos_
62
7
100
AcDbLine
39
0.
10
883702.21999999997
20
296659.96000000002
30
0.
11
883688.16000000003
21
296678.02000000002
31
0.
0
LINE
5
73290
100
AcDbEntity
8
ITR-7-FEKVESHATAR
6
0_18_-_Folyamatos_
62
7
100
AcDbLine
39
0.
10
883702.21999999997
20
296659.96000000002
30
0.
11
883706.96999999997
21
296653.84999999998
31
0.
0
LINE
5
73291
100
AcDbEntity
8
ITR-7-FEKVESHATAR
6
0_18_-_Folyamatos_
62
7
100
AcDbLine
39
0.
10
883688.16000000003
20
296678.02000000002
30
0.
11
883685.25
21
296681.77000000002
31
0.
0
LINE
5
73292
100
AcDbEntity
8
ITR-7-FEKVESHATAR
6
0_18_-_Folyamatos_
62
7
100
AcDbLine
39
0.
10
883685.25
20
296681.77000000002
30
0.
11
883682.92000000004
21
296686.13
31
0.
0
LINE
5
73293
100
AcDbEntity
8
ITR-7-FEKVESHATAR
6
0_18_-_Folyamatos_
62
7
100
AcDbLine
39
0.
10
883682.92000000004
20
296686.13
30
0.
11
883677.10999999999
21
296697.
31
0.
0
LINE
5
73294
100
AcDbEntity
8
ITR-7-FEKVESHATAR
6
0_18_-_Folyamatos_
62
7
100
AcDbLine
39
0.
10
883673.84999999998
20
296727.29999999999
30
0.
11
883665.14000000001
21
296737.29999999999
31
0.
0
LINE
5
73295
100
AcDbEntity
8
ITR-7-FEKVESHATAR
6
0_18_-_Folyamatos_
62
7
100
AcDbLine
39
0.
10
883665.14000000001
20
296737.29999999999
30
0.
11
883650.46999999997
21
296754.14000000001
31
0.
0
LINE
5
73296
100
AcDbEntity
8
ITR-7-FEKVESHATAR
6
0_18_-_Folyamatos_
62
7
100
AcDbLine
39
0.
10
883636.31999999995
20
296770.37
30
0.
11
883635.14000000001
21
296771.72999999998
31
0.
0
LINE
5
73297
100
AcDbEntity
8
ITR-7-FEKVESHATAR
6
0_18_-_Folyamatos_
62
7
100
AcDbLine
39
0.
10
883650.46999999997
20
296754.14000000001
30
0.
11
883643.81000000006
21
296761.78000000003
31
0.
0
LINE
5
73298
100
AcDbEntity
8
ITR-7-FEKVESHATAR
6
0_18_-_Folyamatos_
62
7
100
AcDbLine
39
0.
10
883749.75
20
296598.84999999998
30
0.
11
883759.78000000003
21
296585.96999999997
31
0.
0
LINE
5
73299
100
AcDbEntity
8
ITR-7-FEKVESHATAR
6
0_18_-_Folyamatos_
62
7
100
AcDbLine
39
0.
10
883774.58999999997
20
296566.92999999999
30
0.
11
883759.78000000003
21
296585.96999999997
31
0.
0
LINE
5
7329a
100
AcDbEntity
8
ITR-7-FEKVESHATAR
6
0_18_-_Folyamatos_
62
7
100
AcDbLine
39
0.
10
883783.56999999995
20
296555.38
30
0.
11
883774.58999999997
21
296566.92999999999
31
0.
0
LINE
5
7329b
100
AcDbEntity
8
ITR-7-FEKVESHATAR
6
0_18_-_Folyamatos_
62
7
100
AcDbLine
39
0.
10
883783.56999999995
20
296555.38
30
0.
11
883789.46999999997
21
296548.66999999998
31
0.
0
LINE
5
7329c
100
AcDbEntity
8
ITR-7-FEKVESHATAR
6
0_18_-_Folyamatos_
62
7
100
AcDbLine
39
0.
10
884755.09999999998
20
296366.52000000002
30
0.
11
884774.60999999999
21
296371.90999999997
31
0.
0
LINE
5
7329d
100
AcDbEntity
8
ITR-7-FEKVESHATAR
6
0_18_-_Folyamatos_
62
7
100
AcDbLine
39
0.
10
884736.91000000003
20
296361.5
30
0.
11
884755.09999999998
21
296366.52000000002
31
0.
0
LINE
5
7329e
100
AcDbEntity
8
ITR-7-FEKVESHATAR
6
0_18_-_Folyamatos_
62
7
100
AcDbLine
39
0.
10
884723.47999999998
20
296357.78999999998
30
0.
11
884736.91000000003
21
296361.5
31
0.
0
LINE
5
7329f
100
AcDbEntity
8
ITR-7-FEKVESHATAR
6
0_18_-_Folyamatos_
62
7
100
AcDbLine
39
0.
10
884686.89000000001
20
296347.67999999999
30
0.
11
884654.69999999995
21
296440.59999999998
31
0.
0
LINE
5
732a0
100
AcDbEntity
8
ITR-7-FEKVESHATAR
6
0_18_-_Folyamatos_
62
7
100
AcDbLine
39
0.
10
884686.89000000001
20
296347.67999999999
30
0.
11
884706.89000000001
21
296353.21000000002
31
0.
0
LINE
5
732a1
100
AcDbEntity
8
ITR-7-FEKVESHATAR
6
0_18_-_Folyamatos_
62
7
100
AcDbLine
39
0.
10
884706.89000000001
20
296353.21000000002
30
0.
11
884723.47999999998
21
296357.78999999998
31
0.
0
LINE
5
732a2
100
AcDbEntity
8
ITR-7-FEKVESHATAR
6
0_18_-_Folyamatos_
62
7
100
AcDbLine
39
0.
10
884774.60999999999
20
296371.90999999997
30
0.
11
884790.51000000001
21
296376.29999999999
31
0.
0
LINE
5
732a3
100
AcDbEntity
8
ITR-7-FEKVESHATAR
6
0_18_-_Folyamatos_
62
7
100
AcDbLine
39
0.
10
884790.51000000001
20
296376.29999999999
30
0.
11
884806.72999999998
21
296380.78999999998
31
0.
0
LINE
5
732a4
100
AcDbEntity
8
ITR-7-FEKVESHATAR
6
0_18_-_Folyamatos_
62
7
100
AcDbLine
39
0.
10
884083.93000000005
20
296349.33000000002
30
0.
11
884086.23999999999
21
296342.27000000002
31
0.
0
LINE
5
732a5
100
AcDbEntity
8
ITR-7-FEKVESHATAR
6
0_18_-_Folyamatos_
62
7
100
AcDbLine
39
0.
10
884086.23999999999
20
296342.27000000002
30
0.
11
884090.02000000002
21
296330.70000000001
31
0.
0
LINE
5
732a6
100
AcDbEntity
8
ITR-7-FEKVESHATAR
6
0_18_-_Folyamatos_
62
7
100
AcDbLine
39
0.
10
884083.93000000005
20
296349.33000000002
30
0.
11
884080.91000000003
21
296358.28999999998
31
0.
0
LINE
5
732a7
100
AcDbEntity
8
ITR-7-FEKVESHATAR
6
0_18_-_Folyamatos_
62
7
100
AcDbLine
39
0.
10
884080.91000000003
20
296358.28999999998
30
0.
11
884075.13
21
296375.41999999998
31
0.
0
LINE
5
732a8
100
AcDbEntity
8
ITR-7-FEKVESHATAR
6
0_18_-_Folyamatos_
62
7
100
AcDbLine
39
0.
10
884093.79000000004
20
296319.19
30
0.
11
884490.93999999994
21
296360.70000000001
31
0.
0
LINE
5
732a9
100
AcDbEntity
8
ITR-7-FEKVESHATAR
6
0_18_-_Folyamatos_
62
7
100
AcDbLine
39
0.
10
884075.13
20
296375.41999999998
30
0.
11
884074.18999999994
21
296378.21999999997
31
0.
0
LINE
5
732aa
100
AcDbEntity
8
ITR-7-FEKVESHATAR
6
0_18_-_Folyamatos_
62
7
100
AcDbLine
39
0.
10
884074.18999999994
20
296378.21999999997
30
0.
11
884045.18000000005
21
296464.19
31
0.
0
LINE
5
732ab
100
AcDbEntity
8
ITR-7-FEKVESHATAR
6
0_18_-_Folyamatos_
62
7
100
AcDbLine
39
0.
10
884090.02000000002
20
296330.70000000001
30
0.
11
884093.79000000004
21
296319.19
31
0.
0
LINE
5
732ac
100
AcDbEntity
8
ITR-7-FEKVESHATAR
6
0_18_-_Folyamatos_
62
7
100
AcDbLine
39
0.
10
884825.13
20
296385.87
30
0.
11
884806.72999999998
21
296380.78999999998
31
0.
0
LINE
5
732ad
100
AcDbEntity
8
ITR-7-FEKVESHATAR
6
0_18_-_Folyamatos_
62
7
100
AcDbLine
39
0.
10
884860.21999999997
20
296395.56
30
0.
11
884877.19999999995
21
296400.25
31
0.
0
LINE
5
732ae
100
AcDbEntity
8
ITR-7-FEKVESHATAR
6
0_18_-_Folyamatos_
62
7
100
AcDbLine
39
0.
10
884840.93999999994
20
296390.23999999999
30
0.
11
884860.21999999997
21
296395.56
31
0.
0
LINE
5
732af
100
AcDbEntity
8
ITR-7-FEKVESHATAR
6
0_18_-_Folyamatos_
62
7
100
AcDbLine
39
0.
10
884840.93999999994
20
296390.23999999999
30
0.
11
884825.13
21
296385.87
31
0.
0
LINE
5
732b0
100
AcDbEntity
8
ITR-7-FEKVESHATAR
6
0_18_-_Folyamatos_
62
7
100
AcDbLine
39
0.
10
884957.60999999999
20
296548.28000000003
30
0.
11
884923.13
21
296652.84999999998
31
0.
0
LINE
5
732b1
100
AcDbEntity
8
ITR-7-FEKVESHATAR
6
0_18_-_Folyamatos_
62
7
100
AcDbLine
39
0.
10
884957.60999999999
20
296548.28000000003
30
0.
11
884961.54000000004
21
296536.35999999999
31
0.
0
LINE
5
732b2
100
AcDbEntity
8
ITR-7-FEKVESHATAR
6
0_18_-_Folyamatos_
62
7
100
AcDbLine
39
0.
10
884961.54000000004
20
296536.35999999999
30
0.
11
884963.03000000003
21
296531.84000000003
31
0.
0
LINE
5
732b3
100
AcDbEntity
8
ITR-7-FEKVESHATAR
6
0_18_-_Folyamatos_
62
7
100
AcDbLine
39
0.
10
884963.03000000003
20
296531.84000000003
30
0.
11
884968.20999999996
21
296516.12
31
0.
0
LINE
5
732b4
100
AcDbEntity
8
ITR-7-FEKVESHATAR
6
0_18_-_Folyamatos_
62
7
100
AcDbLine
39
0.
10
884945.81999999995
20
296419.21000000002
30
0.
11
884962.57999999996
21
296423.84000000003
31
0.
0
LINE
5
732b5
100
AcDbEntity
8
ITR-7-FEKVESHATAR
6
0_18_-_Folyamatos_
62
7
100
AcDbLine
39
0.
10
884979.87
20
296428.62
30
0.
11
884995.63
21
296432.96999999997
31
0.
0
LINE
5
732b6
100
AcDbEntity
8
ITR-7-FEKVESHATAR
6
0_18_-_Folyamatos_
62
7
100
AcDbLine
39
0.
10
884962.57999999996
20
296423.84000000003
30
0.
11
884979.87
21
296428.62
31
0.
0
LINE
5
732b7
100
AcDbEntity
8
ITR-7-FEKVESHATAR
6
0_18_-_Folyamatos_
62
7
100
AcDbLine
39
0.
10
884908.54000000004
20
296408.90999999997
30
0.
11
884928.60999999999
21
296414.46000000002
31
0.
0
LINE
5
732b8
100
AcDbEntity
8
ITR-7-FEKVESHATAR
6
0_18_-_Folyamatos_
62
7
100
AcDbLine
39
0.
10
884968.20999999996
20
296516.12
30
0.
11
884995.63
21
296432.96999999997
31
0.
0
LINE
5
732b9
100
AcDbEntity
8
ITR-7-FEKVESHATAR
6
0_18_-_Folyamatos_
62
7
100
AcDbLine
39
0.
10
884928.60999999999
20
296414.46000000002
30
0.
11
884945.81999999995
21
296419.21000000002
31
0.
0
LINE
5
732ba
100
AcDbEntity
8
ITR-7-FEKVESHATAR
6
0_18_-_Folyamatos_
62
7
100
AcDbLine
39
0.
10
884891.75
20
296404.27000000002
30
0.
11
884908.54000000004
21
296408.90999999997
31
0.
0
LINE
5
732bb
100
AcDbEntity
8
ITR-7-FEKVESHATAR
6
0_18_-_Folyamatos_
62
7
100
AcDbLine
39
0.
10
884877.19999999995
20
296400.25
30
0.
11
884891.75
21
296404.27000000002
31
0.
0
LINE
5
732bc
100
AcDbEntity
8
ITR-7-FEKVESHATAR
6
0_18_-_Folyamatos_
62
7
100
AcDbLine
39
0.
10
884491.55000000005
20
296389.75
30
0.
11
884487.66000000003
21
296396.95000000001
31
0.
0
LINE
5
732bd
100
AcDbEntity
8
ITR-7-FEKVESHATAR
6
0_18_-_Folyamatos_
62
7
100
AcDbLine
39
0.
10
884487.66000000003
20
296396.95000000001
30
0.
11
884470.44999999995
21
296398.40999999997
31
0.
0
LINE
5
732be
100
AcDbEntity
8
ITR-7-FEKVESHATAR
6
0_18_-_Folyamatos_
62
7
100
AcDbLine
39
0.
10
884470.44999999995
20
296398.40999999997
30
0.
11
884478.67000000004
21
296383.28999999998
31
0.
0
LINE
5
732bf
100
AcDbEntity
8
ITR-7-FEKVESHATAR
6
0_18_-_Folyamatos_
62
7
100
AcDbLine
39
0.
10
884478.67000000004
20
296383.28999999998
30
0.
11
884484.81999999995
21
296371.96000000002
31
0.
0
LINE
5
732c0
100
AcDbEntity
8
ITR-7-FEKVESHATAR
6
0_18_-_Folyamatos_
62
7
100
AcDbLine
39
0.
10
884484.81999999995
20
296371.96000000002
30
0.
11
884490.93999999994
21
296360.70000000001
31
0.
0
LINE
5
732c1
100
AcDbEntity
8
ITR-7-FEKVESHATAR
6
0_18_-_Folyamatos_
62
7
100
AcDbLine
39
0.
10
883409.48999999999
20
297277.03000000003
30
0.
11
883407.13
21
297285.67999999999
31
0.
0
LINE
5
732c2
100
AcDbEntity
8
ITR-7-FEKVESHATAR
6
0_18_-_Folyamatos_
62
7
100
AcDbLine
39
0.
10
883410.91000000003
20
297271.84000000003
30
0.
11
883409.48999999999
21
297277.03000000003
31
0.
0
LINE
5
732c3
100
AcDbEntity
8
ITR-7-FEKVESHATAR
6
0_18_-_Folyamatos_
62
7
100
AcDbLine
39
0.
10
883410.91000000003
20
297271.84000000003
30
0.
11
883414.94999999995
21
297256.46999999997
31
0.
0
LINE
5
732c4
100
AcDbEntity
8
ITR-7-FEKVESHATAR
6
0_18_-_Folyamatos_
62
7
100
AcDbLine
39
0.
10
883402.70999999996
20
297301.87
30
0.
11
883398.96999999997
21
297315.57000000001
31
0.
0
LINE
5
732c5
100
AcDbEntity
8
ITR-7-FEKVESHATAR
6
0_18_-_Folyamatos_
62
7
100
AcDbLine
39
0.
10
883407.13
20
297285.67999999999
30
0.
11
883402.70999999996
21
297301.87
31
0.
0
LINE
5
732c6
100
AcDbEntity
8
ITR-7-FEKVESHATAR
6
0_18_-_Folyamatos_
62
7
100
AcDbLine
39
0.
10
883414.94999999995
20
297256.46999999997
30
0.
11
883422.34999999998
21
297228.33000000002
31
0.
0
LINE
5
732c7
100
AcDbEntity
8
ITR-7-FEKVESHATAR
6
0_18_-_Folyamatos_
62
7
100
AcDbLine
39
0.
10
883371.78000000003
20
297415.08000000002
30
0.
11
883377.90000000002
21
297392.69
31
0.
0
LINE
5
732c8
100
AcDbEntity
8
ITR-7-FEKVESHATAR
6
0_18_-_Folyamatos_
62
7
100
AcDbLine
39
0.
10
883339.43000000005
20
297533.53000000003
30
0.
11
883343.10999999999
21
297520.07000000001
31
0.
0
LINE
5
732c9
100
AcDbEntity
8
ITR-7-FEKVESHATAR
6
0_18_-_Folyamatos_
62
7
100
AcDbLine
39
0.
10
883361.91000000003
20
297451.21999999997
30
0.
11
883357.80000000005
21
297466.27000000002
31
0.
0
LINE
5
732ca
100
AcDbEntity
8
ITR-7-FEKVESHATAR
6
0_18_-_Folyamatos_
62
7
100
AcDbLine
39
0.
10
883361.91000000003
20
297451.21999999997
30
0.
11
883366.44999999995
21
297434.62
31
0.
0
LINE
5
732cb
100
AcDbEntity
8
ITR-7-FEKVESHATAR
6
0_18_-_Folyamatos_
62
7
100
AcDbLine
39
0.
10
883366.44999999995
20
297434.62
30
0.
11
883371.78000000003
21
297415.08000000002
31
0.
0
LINE
5
732cc
100
AcDbEntity
8
ITR-7-FEKVESHATAR
6
0_18_-_Folyamatos_
62
7
100
AcDbLine
39
0.
10
883353.56000000006
20
297481.78999999998
30
0.
11
883357.80000000005
21
297466.27000000002
31
0.
0
LINE
5
732cd
100
AcDbEntity
8
ITR-7-FEKVESHATAR
6
0_18_-_Folyamatos_
62
7
100
AcDbLine
39
0.
10
883326.65000000002
20
297580.32000000001
30
0.
11
883331.43999999994
21
297562.77000000002
31
0.
0
LINE
5
732ce
100
AcDbEntity
8
ITR-7-FEKVESHATAR
6
0_18_-_Folyamatos_
62
7
100
AcDbLine
39
0.
10
883326.65000000002
20
297580.32000000001
30
0.
11
883321.91000000003
21
297597.67999999999
31
0.
0
LINE
5
732cf
100
AcDbEntity
8
ITR-7-FEKVESHATAR
6
0_18_-_Folyamatos_
62
7
100
AcDbLine
39
0.
10
883321.91000000003
20
297597.67999999999
30
0.
11
883317.89000000001
21
297612.39000000001
31
0.
0
LINE
5
732d0
100
AcDbEntity
8
ITR-7-FEKVESHATAR
6
0_18_-_Folyamatos_
62
7
100
AcDbLine
39
0.
10
883331.43999999994
20
297562.77000000002
30
0.
11
883335.48999999999
21
297547.96999999997
31
0.
0
LINE
5
732d1
100
AcDbEntity
8
ITR-7-FEKVESHATAR
6
0_18_-_Folyamatos_
62
7
100
AcDbLine
39
0.
10
883348.58999999997
20
297500.
30
0.
11
883353.56000000006
21
297481.78999999998
31
0.
0
LINE
5
732d2
100
AcDbEntity
8
ITR-7-FEKVESHATAR
6
0_18_-_Folyamatos_
62
7
100
AcDbLine
39
0.
10
883343.10999999999
20
297520.07000000001
30
0.
11
883348.58999999997
21
297500.
31
0.
0
LINE
5
732d3
100
AcDbEntity
8
ITR-7-FEKVESHATAR
6
0_18_-_Folyamatos_
62
7
100
AcDbLine
39
0.
10
883335.48999999999
20
297547.96999999997
30
0.
11
883339.43000000005
21
297533.53000000003
31
0.
0
LINE
5
732d4
100
AcDbEntity
8
ITR-7-FEKVESHATAR
6
0_18_-_Folyamatos_
62
7
100
AcDbLine
39
0.
10
883377.90000000002
20
297392.69
30
0.
11
883382.41000000003
21
297376.19
31
0.
0
LINE
5
732d5
100
AcDbEntity
8
ITR-7-FEKVESHATAR
6
0_18_-_Folyamatos_
62
7
100
AcDbLine
39
0.
10
883392.63
20
297338.77000000002
30
0.
11
883388.18000000005
21
297355.07000000001
31
0.
0
LINE
5
732d6
100
AcDbEntity
8
ITR-7-FEKVESHATAR
6
0_18_-_Folyamatos_
62
7
100
AcDbLine
39
0.
10
883398.96999999997
20
297315.57000000001
30
0.
11
883392.63
21
297338.77000000002
31
0.
0
LINE
5
732d7
100
AcDbEntity
8
ITR-7-FEKVESHATAR
6
0_18_-_Folyamatos_
62
7
100
AcDbLine
39
0.
10
883388.18000000005
20
297355.07000000001
30
0.
11
883382.41000000003
21
297376.19
31
0.
0
LINE
5
732d8
100
AcDbEntity
8
ITR-7-FEKVESHATAR
6
0_18_-_Folyamatos_
62
7
100
AcDbLine
39
0.
10
883305.12
20
297659.15999999997
30
0.
11
883300.89000000001
21
297674.62
31
0.
0
LINE
5
732d9
100
AcDbEntity
8
ITR-7-FEKVESHATAR
6
0_18_-_Folyamatos_
62
7
100
AcDbLine
39
0.
10
883309.90000000002
20
297641.65000000002
30
0.
11
883309.04000000004
21
297644.81
31
0.
0
LINE
5
732da
100
AcDbEntity
8
ITR-7-FEKVESHATAR
6
0_18_-_Folyamatos_
62
7
100
AcDbLine
39
0.
10
883306.40000000002
20
297654.44
30
0.
11
883305.12
21
297659.15999999997
31
0.
0
LINE
5
732db
100
AcDbEntity
8
ITR-7-FEKVESHATAR
6
0_18_-_Folyamatos_
62
7
100
AcDbLine
39
0.
10
883309.04000000004
20
297644.81
30
0.
11
883306.40000000002
21
297654.44
31
0.
0
LINE
5
732dc
100
AcDbEntity
8
ITR-7-FEKVESHATAR
6
0_18_-_Folyamatos_
62
7
100
AcDbLine
39
0.
10
883285.89000000001
20
297729.56
30
0.
11
883289.95999999996
21
297714.63
31
0.
0
LINE
5
732dd
100
AcDbEntity
8
ITR-7-FEKVESHATAR
6
0_18_-_Folyamatos_
62
7
100
AcDbLine
39
0.
10
883297.76000000001
20
297686.09000000003
30
0.
11
883289.95999999996
21
297714.63
31
0.
0
LINE
5
732de
100
AcDbEntity
8
ITR-7-FEKVESHATAR
6
0_18_-_Folyamatos_
62
7
100
AcDbLine
39
0.
10
883281.29000000004
20
297746.37
30
0.
11
883285.89000000001
21
297729.56
31
0.
0
LINE
5
732df
100
AcDbEntity
8
ITR-7-FEKVESHATAR
6
0_18_-_Folyamatos_
62
7
100
AcDbLine
39
0.
10
883275.07999999996
20
297769.13
30
0.
11
883281.29000000004
21
297746.37
31
0.
0
LINE
5
732e0
100
AcDbEntity
8
ITR-7-FEKVESHATAR
6
0_18_-_Folyamatos_
62
7
100
AcDbLine
39
0.
10
883272.59999999998
20
297778.20000000001
30
0.
11
883275.07999999996
21
297769.13
31
0.
0
LINE
5
732e1
100
AcDbEntity
8
ITR-7-FEKVESHATAR
6
0_18_-_Folyamatos_
62
7
100
AcDbLine
39
0.
10
883313.87
20
297627.09999999998
30
0.
11
883309.90000000002
21
297641.65000000002
31
0.
0
LINE
5
732e2
100
AcDbEntity
8
ITR-7-FEKVESHATAR
6
0_18_-_Folyamatos_
62
7
100
AcDbLine
39
0.
10
883248.5
20
297771.97999999998
30
0.
11
883243.56999999995
21
297786.23999999999
31
0.
0
LINE
5
732e3
100
AcDbEntity
8
ITR-7-FEKVESHATAR
6
0_18_-_Folyamatos_
62
7
100
AcDbLine
39
0.
10
883248.5
20
297771.97999999998
30
0.
11
883272.59999999998
21
297778.20000000001
31
0.
0
LINE
5
732e4
100
AcDbEntity
8
ITR-7-FEKVESHATAR
6
0_18_-_Folyamatos_
62
7
100
AcDbLine
39
0.
10
883243.56999999995
20
297786.23999999999
30
0.
11
883237.72999999998
21
297803.13
31
0.
0
LINE
5
732e5
100
AcDbEntity
8
ITR-7-FEKVESHATAR
6
0_18_-_Folyamatos_
62
7
100
AcDbLine
39
0.
10
883300.89000000001
20
297674.62
30
0.
11
883297.76000000001
21
297686.09000000003
31
0.
0
LINE
5
732e6
100
AcDbEntity
8
ITR-7-FEKVESHATAR
6
0_18_-_Folyamatos_
62
7
100
AcDbLine
39
0.
10
883317.89000000001
20
297612.39000000001
30
0.
11
883313.87
21
297627.09999999998
31
0.
0
LINE
5
732e7
100
AcDbEntity
8
ITR-7-FEKVESHATAR
6
0_18_-_Folyamatos_
62
7
100
AcDbLine
39
0.
10
883236.06999999995
20
297820.41999999998
30
0.
11
883511.67000000004
21
297893.28000000003
31
0.
0
LINE
5
732e8
100
AcDbEntity
8
ITR-7-FEKVESHATAR
6
0_18_-_Folyamatos_
62
7
100
AcDbLine
39
0.
10
883232.10999999999
20
297819.37
30
0.
11
883236.06999999995
21
297820.41999999998
31
0.
0
LINE
5
732e9
100
AcDbEntity
8
ITR-7-FEKVESHATAR
6
0_18_-_Folyamatos_
62
7
100
AcDbLine
39
0.
10
883232.10999999999
20
297819.37
30
0.
11
883237.72999999998
21
297803.13
31
0.
0
LINE
5
732ea
100
AcDbEntity
8
ITR-7-FEKVESHATAR
6
0_18_-_Folyamatos_
62
7
100
AcDbLine
39
0.
10
883939.33999999997
20
297965.29999999999
30
0.
11
883971.17000000004
21
297975.15000000002
31
0.
0
LINE
5
732eb
100
AcDbEntity
8
ITR-7-FEKVESHATAR
6
0_18_-_Folyamatos_
62
7
100
AcDbLine
39
0.
10
883879.31999999995
20
297944.91999999998
30
0.
11
883939.33999999997
21
297965.29999999999
31
0.
0
LINE
5
732ec
100
AcDbEntity
8
ITR-7-FEKVESHATAR
6
0_18_-_Folyamatos_
62
7
100
AcDbLine
39
0.
10
883971.17000000004
20
297975.15000000002
30
0.
11
884016.43999999994
21
297989.15000000002
31
0.
0
LINE
5
732ed
100
AcDbEntity
8
ITR-7-FEKVESHATAR
6
0_18_-_Folyamatos_
62
7
100
AcDbLine
39
0.
10
884050.69999999995
20
297999.73999999999
30
0.
11
884073.12
21
298006.67999999999
31
0.
0
LINE
5
732ee
100
AcDbEntity
8
ITR-7-FEKVESHATAR
6
0_18_-_Folyamatos_
62
7
100
AcDbLine
39
0.
10
884016.43999999994
20
297989.15000000002
30
0.
11
884050.69999999995
21
297999.73999999999
31
0.
0
LINE
5
732ef
100
AcDbEntity
8
ITR-7-FEKVESHATAR
6
0_18_-_Folyamatos_
62
7
100
AcDbLine
39
0.
10
883782.78000000003
20
297912.15000000002
30
0.
11
883879.31999999995
21
297944.91999999998
31
0.
0
LINE
5
732f0
100
AcDbEntity
8
ITR-7-FEKVESHATAR
6
0_18_-_Folyamatos_
62
7
100
AcDbLine
39
0.
10
884745.14000000001
20
298170.46000000002
30
0.
11
884706.16000000003
21
298288.12
31
0.
0
LINE
5
732f1
100
AcDbEntity
8
ITR-7-FEKVESHATAR
6
0_18_-_Folyamatos_
62
7
100
AcDbLine
39
0.
10
884761.01000000001
20
298122.54999999999
30
0.
11
884745.14000000001
21
298170.46000000002
31
0.
0
LINE
5
732f2
100
AcDbEntity
8
ITR-7-FEKVESHATAR
6
0_18_-_Folyamatos_
62
7
100
AcDbLine
39
0.
10
884769.43999999994
20
298094.17999999999
30
0.
11
884761.01000000001
21
298122.54999999999
31
0.
0
LINE
5
732f3
100
AcDbEntity
8
ITR-7-FEKVESHATAR
6
0_18_-_Folyamatos_
62
7
100
AcDbLine
39
0.
10
884250.79000000004
20
298061.63
30
0.
11
884270.73999999999
21
298067.79999999999
31
0.
0
LINE
5
732f4
100
AcDbEntity
8
ITR-7-FEKVESHATAR
6
0_18_-_Folyamatos_
62
7
100
AcDbLine
39
0.
10
884276.05000000005
20
298069.44
30
0.
11
884294.77000000002
21
298075.23999999999
31
0.
0
LINE
5
732f5
100
AcDbEntity
8
ITR-7-FEKVESHATAR
6
0_18_-_Folyamatos_
62
7
100
AcDbLine
39
0.
10
884270.73999999999
20
298067.79999999999
30
0.
11
884276.05000000005
21
298069.44
31
0.
0
LINE
5
732f6
100
AcDbEntity
8
ITR-7-FEKVESHATAR
6
0_18_-_Folyamatos_
62
7
100
AcDbLine
39
0.
10
884294.77000000002
20
298075.23999999999
30
0.
11
884370.5
21
298098.65999999997
31
0.
0
LINE
5
732f7
100
AcDbEntity
8
ITR-7-FEKVESHATAR
6
0_18_-_Folyamatos_
62
7
100
AcDbLine
39
0.
10
884210.03000000003
20
298049.02000000002
30
0.
11
884230.84999999998
21
298055.46999999997
31
0.
0
LINE
5
732f8
100
AcDbEntity
8
ITR-7-FEKVESHATAR
6
0_18_-_Folyamatos_
62
7
100
AcDbLine
39
0.
10
884230.84999999998
20
298055.46999999997
30
0.
11
884250.79000000004
21
298061.63
31
0.
0
LINE
5
732f9
100
AcDbEntity
8
ITR-7-FEKVESHATAR
6
0_18_-_Folyamatos_
62
7
100
AcDbLine
39
0.
10
884387.08999999997
20
298103.78000000003
30
0.
11
884490.55000000005
21
298135.78999999998
31
0.
0
LINE
5
732fa
100
AcDbEntity
8
ITR-7-FEKVESHATAR
6
0_18_-_Folyamatos_
62
7
100
AcDbLine
39
0.
10
884387.08999999997
20
298103.78000000003
30
0.
11
884382.95999999996
21
298102.51000000001
31
0.
0
LINE
5
732fb
100
AcDbEntity
8
ITR-7-FEKVESHATAR
6
0_18_-_Folyamatos_
62
7
100
AcDbLine
39
0.
10
884382.95999999996
20
298102.51000000001
30
0.
11
884370.5
21
298098.65999999997
31
0.
0
LINE
5
732fc
100
AcDbEntity
8
ITR-7-FEKVESHATAR
6
0_18_-_Folyamatos_
62
7
100
AcDbLine
39
0.
10
884490.55000000005
20
298135.78999999998
30
0.
11
884466.29000000004
21
298212.87
31
0.
0
LINE
5
732fd
100
AcDbEntity
8
ITR-7-FEKVESHATAR
6
0_18_-_Folyamatos_
62
7
100
AcDbLine
39
0.
10
884706.04000000004
20
298288.46999999997
30
0.
11
884706.16000000003
21
298288.12
31
0.
0
LINE
5
732fe
100
AcDbEntity
8
ITR-7-FEKVESHATAR
6
0_18_-_Folyamatos_
62
7
100
AcDbLine
39
0.
10
884706.04000000004
20
298288.46999999997
30
0.
11
884698.29000000004
21
298286.03000000003
31
0.
0
LINE
5
732ff
100
AcDbEntity
8
ITR-7-FEKVESHATAR
6
0_18_-_Folyamatos_
62
7
100
AcDbLine
39
0.
10
884586.35999999999
20
298250.72999999998
30
0.
11
884698.29000000004
21
298286.03000000003
31
0.
0
LINE
5
73300
100
AcDbEntity
8
ITR-7-FEKVESHATAR
6
0_18_-_Folyamatos_
62
7
100
AcDbLine
39
0.
10
884477.79000000004
20
298216.5
30
0.
11
884586.35999999999
21
298250.72999999998
31
0.
0
LINE
5
73301
100
AcDbEntity
8
ITR-7-FEKVESHATAR
6
0_18_-_Folyamatos_
62
7
100
AcDbLine
39
0.
10
884466.29000000004
20
298212.87
30
0.
11
884477.79000000004
21
298216.5
31
0.
0
LINE
5
73302
100
AcDbEntity
8
ITR-7-FEKVESHATAR
6
0_18_-_Folyamatos_
62
7
100
AcDbLine
39
0.
10
884705.06000000006
20
297634.53000000003
30
0.
11
884758.
21
297653.09000000003
31
0.
0
LINE
5
73303
100
AcDbEntity
8
ITR-7-FEKVESHATAR
6
0_18_-_Folyamatos_
62
7
100
AcDbLine
39
0.
10
884707.21999999997
20
297626.83000000002
30
0.
11
884705.06000000006
21
297634.53000000003
31
0.
0
LINE
5
73304
100
AcDbEntity
8
ITR-7-FEKVESHATAR
6
0_18_-_Folyamatos_
62
7
100
AcDbLine
39
0.
10
884707.21999999997
20
297626.83000000002
30
0.
11
884725.23999999999
21
297562.5
31
0.
0
LINE
5
73305
100
AcDbEntity
8
ITR-7-FEKVESHATAR
6
0_18_-_Folyamatos_
62
7
100
AcDbLine
39
0.
10
884758.
20
297653.09000000003
30
0.
11
884777.20999999996
21
297659.82000000001
31
0.
0
LINE
5
73306
100
AcDbEntity
8
ITR-7-FEKVESHATAR
6
0_18_-_Folyamatos_
62
7
100
AcDbLine
39
0.
10
884777.20999999996
20
297659.82000000001
30
0.
11
884801.25
21
297668.25
31
0.
0
LINE
5
73307
100
AcDbEntity
8
ITR-7-FEKVESHATAR
6
0_18_-_Folyamatos_
62
7
100
AcDbLine
39
0.
10
884725.23999999999
20
297562.5
30
0.
11
884772.42000000004
21
297394.14000000001
31
0.
0
LINE
5
73308
100
AcDbEntity
8
ITR-7-FEKVESHATAR
6
0_18_-_Folyamatos_
62
7
100
AcDbLine
39
0.
10
884793.93999999994
20
297317.33000000002
30
0.
11
884796.70999999996
21
297307.42999999999
31
0.
0
LINE
5
73309
100
AcDbEntity
8
ITR-7-FEKVESHATAR
6
0_18_-_Folyamatos_
62
7
100
AcDbLine
39
0.
10
884793.33999999997
20
297319.48999999999
30
0.
11
884793.93999999994
21
297317.33000000002
31
0.
0
LINE
5
7330a
100
AcDbEntity
8
ITR-7-FEKVESHATAR
6
0_18_-_Folyamatos_
62
7
100
AcDbLine
39
0.
10
884796.70999999996
20
297307.42999999999
30
0.
11
884835.40000000002
21
297320.38
31
0.
0
LINE
5
7330b
100
AcDbEntity
8
ITR-7-FEKVESHATAR
6
0_18_-_Folyamatos_
62
7
100
AcDbLine
39
0.
10
884772.71999999997
20
297393.06
30
0.
11
884774.06000000006
21
297388.26000000001
31
0.
0
LINE
5
7330c
100
AcDbEntity
8
ITR-7-FEKVESHATAR
6
0_18_-_Folyamatos_
62
7
100
AcDbLine
39
0.
10
884772.42000000004
20
297394.14000000001
30
0.
11
884772.71999999997
21
297393.06
31
0.
0
LINE
5
7330d
100
AcDbEntity
8
ITR-7-FEKVESHATAR
6
0_18_-_Folyamatos_
62
7
100
AcDbLine
39
0.
10
884774.56000000006
20
297386.47999999998
30
0.
11
884774.06000000006
21
297388.26000000001
31
0.
0
LINE
5
7330e
100
AcDbEntity
8
ITR-7-FEKVESHATAR
6
0_18_-_Folyamatos_
62
7
100
AcDbLine
39
0.
10
884774.56000000006
20
297386.47999999998
30
0.
11
884793.33999999997
21
297319.48999999999
31
0.
0
LINE
5
7330f
100
AcDbEntity
8
ITR-7-FEKVESHATAR
6
0_18_-_Folyamatos_
62
7
100
AcDbLine
39
0.
10
884936.5
20
297263.09999999998
30
0.
11
884937.90000000002
21
297257.70000000001
31
0.
0
LINE
5
73310
100
AcDbEntity
8
ITR-7-FEKVESHATAR
6
0_18_-_Folyamatos_
62
7
100
AcDbLine
39
0.
10
884930.80000000005
20
297261.
30
0.
11
884936.5
21
297263.09999999998
31
0.
0
LINE
5
73311
100
AcDbEntity
8
ITR-7-FEKVESHATAR
6
0_18_-_Folyamatos_
62
7
100
AcDbLine
39
0.
10
884937.90000000002
20
297257.70000000001
30
0.
11
884933.
21
297255.5
31
0.
0
LINE
5
73312
100
AcDbEntity
8
ITR-7-FEKVESHATAR
6
0_18_-_Folyamatos_
62
7
100
AcDbLine
39
0.
10
884933.
20
297255.5
30
0.
11
884953.97999999998
21
297189.73999999999
31
0.
0
LINE
5
73313
100
AcDbEntity
8
ITR-7-FEKVESHATAR
6
0_18_-_Folyamatos_
62
7
100
AcDbLine
39
0.
10
884911.76000000001
20
297320.40000000002
30
0.
11
884930.80000000005
21
297261.
31
0.
0
LINE
5
73314
100
AcDbEntity
8
ITR-7-FEKVESHATAR
6
0_18_-_Folyamatos_
62
7
100
AcDbLine
39
0.
10
884906.13
20
297337.96000000002
30
0.
11
884911.76000000001
21
297320.40000000002
31
0.
0
LINE
5
73315
100
AcDbEntity
8
ITR-7-FEKVESHATAR
6
0_18_-_Folyamatos_
62
7
100
AcDbLine
39
0.
10
884878.78000000003
20
297333.53999999998
30
0.
11
884905.
21
297341.5
31
0.
0
LINE
5
73316
100
AcDbEntity
8
ITR-7-FEKVESHATAR
6
0_18_-_Folyamatos_
62
7
100
AcDbLine
39
0.
10
884835.40000000002
20
297320.38
30
0.
11
884878.78000000003
21
297333.53999999998
31
0.
0
LINE
5
73317
100
AcDbEntity
8
ITR-7-FEKVESHATAR
6
0_18_-_Folyamatos_
62
7
100
AcDbLine
39
0.
10
884905.
20
297341.5
30
0.
11
884906.13
21
297337.96000000002
31
0.
0
LINE
5
73318
100
AcDbEntity
8
ITR-7-FEKVESHATAR
6
0_18_-_Folyamatos_
62
7
100
AcDbLine
39
0.
10
884976.97999999998
20
297147.21000000002
30
0.
11
884999.97999999998
21
297154.53000000003
31
0.
0
LINE
5
73319
100
AcDbEntity
8
ITR-7-FEKVESHATAR
6
0_18_-_Folyamatos_
62
7
100
AcDbLine
39
0.
10
884968.42000000004
20
297144.48999999999
30
0.
11
884976.97999999998
21
297147.21000000002
31
0.
0
LINE
5
7331a
100
AcDbEntity
8
ITR-7-FEKVESHATAR
6
0_18_-_Folyamatos_
62
7
100
AcDbLine
39
0.
10
884953.97999999998
20
297189.73999999999
30
0.
11
884968.42000000004
21
297144.48999999999
31
0.
0
LINE
5
7331b
100
AcDbEntity
8
ITR-7-FEKVESHATAR
6
0_18_-_Folyamatos_
62
7
100
AcDbLine
39
0.
10
885028.01000000001
20
297163.45000000001
30
0.
11
884999.97999999998
21
297154.53000000003
31
0.
0
LINE
5
7331c
100
AcDbEntity
8
ITR-7-FEKVESHATAR
6
0_18_-_Folyamatos_
62
7
100
AcDbLine
39
0.
10
885065.30000000005
20
297175.31
30
0.
11
885028.01000000001
21
297163.45000000001
31
0.
0
LINE
5
7331d
100
AcDbEntity
8
ITR-7-FEKVESHATAR
6
0_18_-_Folyamatos_
62
7
100
AcDbLine
39
0.
10
885065.30000000005
20
297175.31
30
0.
11
885102.42000000004
21
297187.12
31
0.
0
LINE
5
7331e
100
AcDbEntity
8
ITR-7-FEKVESHATAR
6
0_18_-_Folyamatos_
62
7
100
AcDbLine
39
0.
10
885102.42000000004
20
297187.12
30
0.
11
885144.07999999996
21
297200.37
31
0.
0
LINE
5
7331f
100
AcDbEntity
8
ITR-7-FEKVESHATAR
6
0_18_-_Folyamatos_
62
7
100
AcDbLine
39
0.
10
884041.18000000005
20
296476.06
30
0.
11
884045.18000000005
21
296464.19
31
0.
0
LINE
5
73320
100
AcDbEntity
8
ITR-7-FEKVESHATAR
6
0_18_-_Folyamatos_
62
7
100
AcDbLine
39
0.
10
884033.44999999995
20
296492.89000000001
30
0.
11
884007.44999999995
21
296482.94
31
0.
0
LINE
5
73321
100
AcDbEntity
8
ITR-7-FEKVESHATAR
6
0_18_-_Folyamatos_
62
7
100
AcDbLine
39
0.
10
884036.64000000001
20
296489.53000000003
30
0.
11
884041.18000000005
21
296476.06
31
0.
0
LINE
5
73322
100
AcDbEntity
8
ITR-7-FEKVESHATAR
6
0_18_-_Folyamatos_
62
7
100
AcDbLine
39
0.
10
884035.27000000002
20
296493.58000000002
30
0.
11
884033.44999999995
21
296492.89000000001
31
0.
0
LINE
5
73323
100
AcDbEntity
8
ITR-7-FEKVESHATAR
6
0_18_-_Folyamatos_
62
7
100
AcDbLine
39
0.
10
884035.27000000002
20
296493.58000000002
30
0.
11
884036.64000000001
21
296489.53000000003
31
0.
0
LINE
5
73324
100
AcDbEntity
8
ITR-7-FEKVESHATAR
6
0_18_-_Folyamatos_
62
7
100
AcDbLine
39
0.
10
883882.38
20
296443.
30
0.
11
883880.83999999997
21
296444.76000000001
31
0.
0
LINE
5
73325
100
AcDbEntity
8
ITR-7-FEKVESHATAR
6
0_18_-_Folyamatos_
62
7
100
AcDbLine
39
0.
10
883880.83999999997
20
296444.76000000001
30
0.
11
883789.46999999997
21
296548.66999999998
31
0.
0
LINE
5
73326
100
AcDbEntity
8
ITR-7-FEKVESHATAR
6
0_18_-_Folyamatos_
62
7
100
AcDbLine
39
0.
10
883981.43999999994
20
296472.98999999999
30
0.
11
884007.44999999995
21
296482.94
31
0.
0
LINE
5
73327
100
AcDbEntity
8
ITR-7-FEKVESHATAR
6
0_18_-_Folyamatos_
62
7
100
AcDbLine
39
0.
10
883955.93999999994
20
296463.23999999999
30
0.
11
883963.19999999995
21
296466.02000000002
31
0.
0
LINE
5
73328
100
AcDbEntity
8
ITR-7-FEKVESHATAR
6
0_18_-_Folyamatos_
62
7
100
AcDbLine
39
0.
10
883900.78000000003
20
296422.08000000002
30
0.
11
883882.38
21
296443.
31
0.
0
LINE
5
73329
100
AcDbEntity
8
ITR-7-FEKVESHATAR
6
0_18_-_Folyamatos_
62
7
100
AcDbLine
39
0.
10
883963.19999999995
20
296466.02000000002
30
0.
11
883981.43999999994
21
296472.98999999999
31
0.
0
LINE
5
7332a
100
AcDbEntity
8
ITR-7-FEKVESHATAR
6
0_18_-_Folyamatos_
62
7
100
AcDbLine
39
0.
10
883912.46999999997
20
296408.78000000003
30
0.
11
883916.76000000001
21
296403.90000000002
31
0.
0
LINE
5
7332b
100
AcDbEntity
8
ITR-7-FEKVESHATAR
6
0_18_-_Folyamatos_
62
7
100
AcDbLine
39
0.
10
883912.46999999997
20
296408.78000000003
30
0.
11
883900.78000000003
21
296422.08000000002
31
0.
0
LINE
5
7332c
100
AcDbEntity
8
ITR-7-FEKVESHATAR
6
0_18_-_Folyamatos_
62
7
100
AcDbLine
39
0.
10
883916.76000000001
20
296403.90000000002
30
0.
11
883931.93000000005
21
296432.09000000003
31
0.
0
LINE
5
7332d
100
AcDbEntity
8
ITR-7-FEKVESHATAR
6
0_18_-_Folyamatos_
62
7
100
AcDbLine
39
0.
10
883946.81999999995
20
296459.75
30
0.
11
883955.93999999994
21
296463.23999999999
31
0.
0
LINE
5
7332e
100
AcDbEntity
8
ITR-7-FEKVESHATAR
6
0_18_-_Folyamatos_
62
7
100
AcDbLine
39
0.
10
883931.93000000005
20
296432.09000000003
30
0.
11
883946.81999999995
21
296459.75
31
0.
0
LINE
5
7332f
100
AcDbEntity
8
ITR-7-FEKVESHATAR
6
0_18_-_Folyamatos_
62
7
100
AcDbLine
39
0.
10
884892.56999999995
20
296767.96000000002
30
0.
11
884891.45999999996
21
296763.59999999998
31
0.
0
LINE
5
73330
100
AcDbEntity
8
ITR-7-FEKVESHATAR
6
0_18_-_Folyamatos_
62
7
100
AcDbLine
39
0.
10
884895.62
20
296768.90999999997
30
0.
11
884892.56999999995
21
296767.96000000002
31
0.
0
LINE
5
73331
100
AcDbEntity
8
ITR-7-FEKVESHATAR
6
0_18_-_Folyamatos_
62
7
100
AcDbLine
39
0.
10
884891.45999999996
20
296763.59999999998
30
0.
11
884889.33999999997
21
296755.32000000001
31
0.
0
LINE
5
73332
100
AcDbEntity
8
ITR-7-FEKVESHATAR
6
0_18_-_Folyamatos_
62
7
100
AcDbLine
39
0.
10
884895.62
20
296768.90999999997
30
0.
11
885041.62
21
296814.31
31
0.
0
LINE
5
73333
100
AcDbEntity
8
ITR-7-FEKVESHATAR
6
0_18_-_Folyamatos_
62
7
100
AcDbLine
39
0.
10
884923.13
20
296652.84999999998
30
0.
11
884889.33999999997
21
296755.32000000001
31
0.
0
LINE
5
73334
100
AcDbEntity
8
ITR-7-FEKVESHATAR
6
0_18_-_Folyamatos_
62
7
100
AcDbLine
39
0.
10
885118.93999999994
20
296821.58000000002
30
0.
11
885117.89000000001
21
296824.58000000002
31
0.
0
LINE
5
73335
100
AcDbEntity
8
ITR-7-FEKVESHATAR
6
0_18_-_Folyamatos_
62
7
100
AcDbLine
39
0.
10
885130.31000000006
20
296828.58000000002
30
0.
11
885127.70999999996
21
296827.73999999999
31
0.
0
LINE
5
73336
100
AcDbEntity
8
ITR-7-FEKVESHATAR
6
0_18_-_Folyamatos_
62
7
100
AcDbLine
39
0.
10
885130.31000000006
20
296828.58000000002
30
0.
11
885404.40000000002
21
296917.07000000001
31
0.
0
LINE
5
73337
100
AcDbEntity
8
ITR-7-FEKVESHATAR
6
0_18_-_Folyamatos_
62
7
100
AcDbLine
39
0.
10
885127.70999999996
20
296827.73999999999
30
0.
11
885126.72999999998
21
296827.42999999999
31
0.
0
LINE
5
73338
100
AcDbEntity
8
ITR-7-FEKVESHATAR
6
0_18_-_Folyamatos_
62
7
100
AcDbLine
39
0.
10
885126.72999999998
20
296827.42999999999
30
0.
11
885117.89000000001
21
296824.58000000002
31
0.
0
LINE
5
73339
100
AcDbEntity
8
ITR-7-FEKVESHATAR
6
0_18_-_Folyamatos_
62
7
100
AcDbLine
39
0.
10
885119.93000000005
20
296818.72999999998
30
0.
11
885118.93999999994
21
296821.58000000002
31
0.
0
LINE
5
7333a
100
AcDbEntity
8
ITR-7-FEKVESHATAR
6
0_18_-_Folyamatos_
62
7
100
AcDbLine
39
0.
10
885041.62
20
296814.31
30
0.
11
885084.04000000004
21
296677.04999999999
31
0.
0
LINE
5
7333b
100
AcDbEntity
8
ITR-7-FEKVESHATAR
6
0_18_-_Folyamatos_
62
7
100
AcDbLine
39
0.
10
885314.62
20
297064.75
30
0.
11
885389.25
21
296999.
31
0.
0
LINE
5
7333c
100
AcDbEntity
8
ITR-7-FEKVESHATAR
6
0_18_-_Folyamatos_
62
7
100
AcDbLine
39
0.
10
885303.65000000002
20
297074.40999999997
30
0.
11
885314.62
21
297064.75
31
0.
0
LINE
5
7333d
100
AcDbEntity
8
ITR-7-FEKVESHATAR
6
0_18_-_Folyamatos_
62
7
100
AcDbLine
39
0.
10
885300.13
20
297077.51000000001
30
0.
11
885353.65000000002
21
297096.06
31
0.
0
LINE
5
7333e
100
AcDbEntity
8
ITR-7-FEKVESHATAR
6
0_18_-_Folyamatos_
62
7
100
AcDbLine
39
0.
10
885303.65000000002
20
297074.40999999997
30
0.
11
885300.13
21
297077.51000000001
31
0.
0
LINE
5
7333f
100
AcDbEntity
8
ITR-7-FEKVESHATAR
6
0_18_-_Folyamatos_
62
7
100
AcDbLine
39
0.
10
885322.06000000006
20
297187.39000000001
30
0.
11
885315.25
21
297207.09999999998
31
0.
0
LINE
5
73340
100
AcDbEntity
8
ITR-7-FEKVESHATAR
6
0_18_-_Folyamatos_
62
7
100
AcDbLine
39
0.
10
885342.25
20
297129.01000000001
30
0.
11
885335.30000000005
21
297149.10999999999
31
0.
0
LINE
5
73341
100
AcDbEntity
8
ITR-7-FEKVESHATAR
6
0_18_-_Folyamatos_
62
7
100
AcDbLine
39
0.
10
885351.83999999997
20
297101.29999999999
30
0.
11
885353.65000000002
21
297096.06
31
0.
0
LINE
5
73342
100
AcDbEntity
8
ITR-7-FEKVESHATAR
6
0_18_-_Folyamatos_
62
7
100
AcDbLine
39
0.
10
885351.68999999994
20
297101.71999999997
30
0.
11
885350.43000000005
21
297105.35999999999
31
0.
0
LINE
5
73343
100
AcDbEntity
8
ITR-7-FEKVESHATAR
6
0_18_-_Folyamatos_
62
7
100
AcDbLine
39
0.
10
885351.68999999994
20
297101.71999999997
30
0.
11
885351.83999999997
21
297101.29999999999
31
0.
0
LINE
5
73344
100
AcDbEntity
8
ITR-7-FEKVESHATAR
6
0_18_-_Folyamatos_
62
7
100
AcDbLine
39
0.
10
885350.43000000005
20
297105.35999999999
30
0.
11
885342.25
21
297129.01000000001
31
0.
0
LINE
5
73345
100
AcDbEntity
8
ITR-7-FEKVESHATAR
6
0_18_-_Folyamatos_
62
7
100
AcDbLine
39
0.
10
885335.30000000005
20
297149.10999999999
30
0.
11
885326.56999999995
21
297174.37
31
0.
0
LINE
5
73346
100
AcDbEntity
8
ITR-7-FEKVESHATAR
6
0_18_-_Folyamatos_
62
7
100
AcDbLine
39
0.
10
885326.56999999995
20
297174.37
30
0.
11
885322.06000000006
21
297187.39000000001
31
0.
0
LINE
5
73347
100
AcDbEntity
8
ITR-7-FEKVESHATAR
6
0_18_-_Folyamatos_
62
7
100
AcDbLine
39
0.
10
885404.40000000002
20
296917.07000000001
30
0.
11
885426.69999999995
21
296924.27000000002
31
0.
0
LINE
5
73348
100
AcDbEntity
8
ITR-7-FEKVESHATAR
6
0_18_-_Folyamatos_
62
7
100
AcDbLine
39
0.
10
885426.69999999995
20
296924.27000000002
30
0.
11
885418.85999999999
21
296955.14000000001
31
0.
0
LINE
5
73349
100
AcDbEntity
8
ITR-7-FEKVESHATAR
6
0_18_-_Folyamatos_
62
7
100
AcDbLine
39
0.
10
885418.85999999999
20
296955.14000000001
30
0.
11
885357.03000000003
21
296986.67999999999
31
0.
0
LINE
5
7334a
100
AcDbEntity
8
ITR-7-FEKVESHATAR
6
0_18_-_Folyamatos_
62
7
100
AcDbLine
39
0.
10
885367.97999999998
20
296990.87
30
0.
11
885389.25
21
296999.
31
0.
0
LINE
5
7334b
100
AcDbEntity
8
ITR-7-FEKVESHATAR
6
0_18_-_Folyamatos_
62
7
100
AcDbLine
39
0.
10
885357.03000000003
20
296986.67999999999
30
0.
11
885367.97999999998
21
296990.87
31
0.
0
LINE
5
7334c
100
AcDbEntity
8
ITR-7-FEKVESHATAR
6
0_18_-_Folyamatos_
62
7
100
AcDbLine
39
0.
10
885155.41000000003
20
296699.03999999998
30
0.
11
885161.08999999997
21
296700.78999999998
31
0.
0
LINE
5
7334d
100
AcDbEntity
8
ITR-7-FEKVESHATAR
6
0_18_-_Folyamatos_
62
7
100
AcDbLine
39
0.
10
885155.41000000003
20
296699.03999999998
30
0.
11
885130.18999999994
21
296691.27000000002
31
0.
0
LINE
5
7334e
100
AcDbEntity
8
ITR-7-FEKVESHATAR
6
0_18_-_Folyamatos_
62
7
100
AcDbLine
39
0.
10
885161.08999999997
20
296700.78999999998
30
0.
11
885141.37
21
296757.29999999999
31
0.
0
LINE
5
7334f
100
AcDbEntity
8
ITR-7-FEKVESHATAR
6
0_18_-_Folyamatos_
62
7
100
AcDbLine
39
0.
10
885141.37
20
296757.29999999999
30
0.
11
885133.
21
296781.28000000003
31
0.
0
LINE
5
73350
100
AcDbEntity
8
ITR-7-FEKVESHATAR
6
0_18_-_Folyamatos_
62
7
100
AcDbLine
39
0.
10
885133.
20
296781.28000000003
30
0.
11
885119.93000000005
21
296818.72999999998
31
0.
0
LINE
5
73351
100
AcDbEntity
8
ITR-7-FEKVESHATAR
6
0_18_-_Folyamatos_
62
7
100
AcDbLine
39
0.
10
885112.81999999995
20
296685.91999999998
30
0.
11
885130.18999999994
21
296691.27000000002
31
0.
0
LINE
5
73352
100
AcDbEntity
8
ITR-7-FEKVESHATAR
6
0_18_-_Folyamatos_
62
7
100
AcDbLine
39
0.
10
885112.81999999995
20
296685.91999999998
30
0.
11
885111.85999999999
21
296685.62
31
0.
0
LINE
5
73353
100
AcDbEntity
8
ITR-7-FEKVESHATAR
6
0_18_-_Folyamatos_
62
7
100
AcDbLine
39
0.
10
885111.85999999999
20
296685.62
30
0.
11
885084.04000000004
21
296677.04999999999
31
0.
0
LINE
5
73354
100
AcDbEntity
8
ITR-7-FEKVESHATAR
6
0_18_-_Folyamatos_
62
7
100
AcDbLine
39
0.
10
884813.05000000005
20
297947.46999999997
30
0.
11
884769.43999999994
21
298094.17999999999
31
0.
0
LINE
5
73355
100
AcDbEntity
8
ITR-7-FEKVESHATAR
6
0_18_-_Folyamatos_
62
7
100
AcDbLine
39
0.
10
884828.02000000002
20
297896.64000000001
30
0.
11
884823.85999999999
21
297910.79999999999
31
0.
0
LINE
5
73356
100
AcDbEntity
8
ITR-7-FEKVESHATAR
6
0_18_-_Folyamatos_
62
7
100
AcDbLine
39
0.
10
884828.02000000002
20
297896.64000000001
30
0.
11
884828.47999999998
21
297895.06
31
0.
0
LINE
5
73357
100
AcDbEntity
8
ITR-7-FEKVESHATAR
6
0_18_-_Folyamatos_
62
7
100
AcDbLine
39
0.
10
884828.47999999998
20
297895.06
30
0.
11
884857.68000000005
21
297795.65000000002
31
0.
0
LINE
5
73358
100
AcDbEntity
8
ITR-7-FEKVESHATAR
6
0_18_-_Folyamatos_
62
7
100
AcDbLine
39
0.
10
884817.05000000005
20
297934.01000000001
30
0.
11
884813.05000000005
21
297947.46999999997
31
0.
0
LINE
5
73359
100
AcDbEntity
8
ITR-7-FEKVESHATAR
6
0_18_-_Folyamatos_
62
7
100
AcDbLine
39
0.
10
884823.85999999999
20
297910.79999999999
30
0.
11
884823.22999999998
21
297912.94
31
0.
0
LINE
5
7335a
100
AcDbEntity
8
ITR-7-FEKVESHATAR
6
0_18_-_Folyamatos_
62
7
100
AcDbLine
39
0.
10
884823.22999999998
20
297912.94
30
0.
11
884822.42000000004
21
297915.69
31
0.
0
LINE
5
7335b
100
AcDbEntity
8
ITR-7-FEKVESHATAR
6
0_18_-_Folyamatos_
62
7
100
AcDbLine
39
0.
10
884822.42000000004
20
297915.69
30
0.
11
884817.05000000005
21
297934.01000000001
31
0.
0
LINE
5
7335c
100
AcDbEntity
8
ITR-7-FEKVESHATAR
6
0_18_-_Folyamatos_
62
7
100
AcDbLine
39
0.
10
884873.31999999995
20
297693.52000000002
30
0.
11
884873.89000000001
21
297693.71999999997
31
0.
0
LINE
5
7335d
100
AcDbEntity
8
ITR-7-FEKVESHATAR
6
0_18_-_Folyamatos_
62
7
100
AcDbLine
39
0.
10
884873.89000000001
20
297693.71999999997
30
0.
11
884886.32999999996
21
297698.08000000002
31
0.
0
LINE
5
7335e
100
AcDbEntity
8
ITR-7-FEKVESHATAR
6
0_18_-_Folyamatos_
62
7
100
AcDbLine
39
0.
10
884857.68000000005
20
297795.65000000002
30
0.
11
884871.23999999999
21
297749.47999999998
31
0.
0
LINE
5
7335f
100
AcDbEntity
8
ITR-7-FEKVESHATAR
6
0_18_-_Folyamatos_
62
7
100
AcDbLine
39
0.
10
884801.25
20
297668.25
30
0.
11
884873.31999999995
21
297693.52000000002
31
0.
0
LINE
5
73360
100
AcDbEntity
8
ITR-7-FEKVESHATAR
6
0_18_-_Folyamatos_
62
7
100
AcDbLine
39
0.
10
884871.23999999999
20
297749.47999999998
30
0.
11
884886.32999999996
21
297698.08000000002
31
0.
0
LINE
5
73361
100
AcDbEntity
8
ITR-7-FEKVESHATAR
6
0_18_-_Folyamatos_
62
7
100
AcDbLine
39
0.
10
883511.67000000004
20
297893.28000000003
30
0.
11
883512.89000000001
21
297893.59999999998
31
0.
0
LINE
5
73362
100
AcDbEntity
8
ITR-7-FEKVESHATAR
6
0_18_-_Folyamatos_
62
7
100
AcDbLine
39
0.
10
883512.89000000001
20
297893.59999999998
30
0.
11
883533.77000000002
21
297899.12
31
0.
0
LINE
5
73363
100
AcDbEntity
8
ITR-7-FEKVESHATAR
6
0_18_-_Folyamatos_
62
7
100
AcDbLine
39
0.
10
883533.77000000002
20
297899.12
30
0.
11
883527.98999999999
21
297930.26000000001
31
0.
0
LINE
5
73364
100
AcDbEntity
8
ITR-7-FEKVESHATAR
6
0_18_-_Folyamatos_
62
7
100
AcDbLine
39
0.
10
883527.98999999999
20
297930.26000000001
30
0.
11
883499.60999999999
21
298083.06
31
0.
0
LINE
5
73365
100
AcDbEntity
8
ITR-7-FEKVESHATAR
6
0_18_-_Folyamatos_
62
7
100
AcDbLine
39
0.
10
883558.10999999999
20
298101.98999999999
30
0.
11
883499.60999999999
21
298083.06
31
0.
0
LINE
5
73366
100
AcDbEntity
8
ITR-7-FEKVESHATAR
6
0_18_-_Folyamatos_
62
7
100
AcDbLine
39
0.
10
883739.18999999994
20
298160.57000000001
30
0.
11
883735.39000000001
21
298159.34000000003
31
0.
0
LINE
5
73367
100
AcDbEntity
8
ITR-7-FEKVESHATAR
6
0_18_-_Folyamatos_
62
7
100
AcDbLine
39
0.
10
883739.18999999994
20
298160.57000000001
30
0.
11
883732.14000000001
21
298069.14000000001
31
0.
0
LINE
5
73368
100
AcDbEntity
8
ITR-7-FEKVESHATAR
6
0_18_-_Folyamatos_
62
7
100
AcDbLine
39
0.
10
883735.39000000001
20
298159.34000000003
30
0.
11
883558.10999999999
21
298101.98999999999
31
0.
0
LINE
5
73369
100
AcDbEntity
8
ITR-7-FEKVESHATAR
6
0_18_-_Folyamatos_
62
7
100
AcDbLine
39
0.
10
883732.14000000001
20
298069.14000000001
30
0.
11
883782.78000000003
21
297912.15000000002
31
0.
0
LINE
5
7336a
100
AcDbEntity
8
ITR-7-FEKVESHATAR
6
0_18_-_Folyamatos_
62
7
100
AcDbLine
39
0.
10
884654.69999999995
20
296440.59999999998
30
0.
11
884628.18999999994
21
296432.34000000003
31
0.
0
LINE
5
7336b
100
AcDbEntity
8
ITR-7-FEKVESHATAR
6
0_18_-_Folyamatos_
62
7
100
AcDbLine
39
0.
10
884628.18999999994
20
296432.34000000003
30
0.
11
884491.55000000005
21
296389.75
31
0.
0
LINE
5
7336c
100
AcDbEntity
8
ITR-7-FEKVESHATAR
6
0_18_-_Folyamatos_
62
7
100
AcDbLine
39
0.
10
885216.
20
297223.12
30
0.
11
885300.38
21
297250.09000000003
31
0.
0
LINE
5
7336d
100
AcDbEntity
8
ITR-7-FEKVESHATAR
6
0_18_-_Folyamatos_
62
7
100
AcDbLine
39
0.
10
885300.38
20
297250.09000000003
30
0.
11
885301.84999999998
21
297245.83000000002
31
0.
0
LINE
5
7336e
100
AcDbEntity
8
ITR-7-FEKVESHATAR
6
0_18_-_Folyamatos_
62
7
100
AcDbLine
39
0.
10
885315.25
20
297207.09999999998
30
0.
11
885310.62
21
297220.48999999999
31
0.
0
LINE
5
7336f
100
AcDbEntity
8
ITR-7-FEKVESHATAR
6
0_18_-_Folyamatos_
62
7
100
AcDbLine
39
0.
10
885310.62
20
297220.48999999999
30
0.
11
885301.84999999998
21
297245.83000000002
31
0.
0
LINE
5
73370
100
AcDbEntity
8
ITR-7-FEKVESHATAR
6
0_18_-_Folyamatos_
62
7
100
AcDbLine
39
0.
10
884073.12
20
298006.67999999999
30
0.
11
884095.98999999999
21
298013.75
31
0.
0
LINE
5
73371
100
AcDbEntity
8
ITR-7-FEKVESHATAR
6
0_18_-_Folyamatos_
62
7
100
AcDbLine
39
0.
10
884095.98999999999
20
298013.75
30
0.
11
884161.69999999995
21
298034.07000000001
31
0.
0
LINE
5
73372
100
AcDbEntity
8
ITR-7-FEKVESHATAR
6
0_18_-_Folyamatos_
62
7
100
AcDbLine
39
0.
10
884161.69999999995
20
298034.07000000001
30
0.
11
884185.43999999994
21
298041.41999999998
31
0.
0
LINE
5
73373
100
AcDbEntity
8
ITR-7-FEKVESHATAR
6
0_18_-_Folyamatos_
62
7
100
AcDbLine
39
0.
10
884185.43999999994
20
298041.41999999998
30
0.
11
884210.03000000003
21
298049.02000000002
31
0.
0
LINE
5
73374
100
AcDbEntity
8
ITR-7-FEKVESHATAR
6
0_18_-_Folyamatos_
62
7
100
AcDbLine
39
0.
10
885144.07999999996
20
297200.37
30
0.
11
885188.69999999995
21
297214.56
31
0.
0
LINE
5
73375
100
AcDbEntity
8
ITR-7-FEKVESHATAR
6
0_18_-_Folyamatos_
62
7
100
AcDbLine
39
0.
10
885188.69999999995
20
297214.56
30
0.
11
885216.
21
297223.12
31
0.
0
LINE
5
73376
100
AcDbEntity
8
ITR-7-FEKVESHATAR
6
0_18_-_Folyamatos_
62
7
100
AcDbLine
39
0.
10
882185.75
20
297195.71999999997
30
0.
11
882196.80000000005
21
297173.44
31
0.
0
LINE
5
73377
100
AcDbEntity
8
ITR-7-FEKVESHATAR
6
0_18_-_Folyamatos_
62
7
100
AcDbLine
39
0.
10
882196.80000000005
20
297173.44
30
0.
11
882209.40000000002
21
297148.03999999998
31
0.
0
LINE
5
73378
100
AcDbEntity
8
ITR-7-FEKVESHATAR
6
0_18_-_Folyamatos_
62
7
100
AcDbLine
39
0.
10
886510.19999999995
20
297050.15000000002
30
0.
11
886520.80000000005
21
297039.02000000002
31
0.
0
LINE
5
73379
100
AcDbEntity
8
ITR-7-FEKVESHATAR
6
0_18_-_Folyamatos_
62
7
100
AcDbLine
39
0.
10
886510.19999999995
20
297050.15000000002
30
0.
11
886502.23999999999
21
297070.42999999999
31
0.
0
LINE
5
7337a
100
AcDbEntity
8
ITR-7-FEKVESHATAR
6
0_18_-_Folyamatos_
62
7
100
AcDbLine
39
0.
10
886502.23999999999
20
297070.42999999999
30
0.
11
886508.25
21
297091.81
31
0.
0
LINE
5
7337b
100
AcDbEntity
8
ITR-7-FEKVESHATAR
6
0_18_-_Folyamatos_
62
7
100
AcDbLine
39
0.
10
886543.21999999997
20
297015.47999999998
30
0.
11
886557.75
21
297000.22999999998
31
0.
0
LINE
5
7337c
100
AcDbEntity
8
ITR-7-FEKVESHATAR
6
0_18_-_Folyamatos_
62
7
100
AcDbLine
39
0.
10
886557.75
20
297000.22999999998
30
0.
11
886570.93999999994
21
296973.76000000001
31
0.
0
LINE
5
7337d
100
AcDbEntity
8
ITR-7-FEKVESHATAR
6
0_18_-_Folyamatos_
62
7
100
AcDbLine
39
0.
10
886508.72999999998
20
297111.98999999999
30
0.
11
886508.62
21
297107.47999999998
31
0.
0
LINE
5
7337e
100
AcDbEntity
8
ITR-7-FEKVESHATAR
6
0_18_-_Folyamatos_
62
7
100
AcDbLine
39
0.
10
886508.72999999998
20
297111.98999999999
30
0.
11
886476.56000000006
21
297121.13
31
0.
0
LINE
5
7337f
100
AcDbEntity
8
ITR-7-FEKVESHATAR
6
0_18_-_Folyamatos_
62
7
100
AcDbLine
39
0.
10
886508.62
20
297107.47999999998
30
0.
11
886508.5
21
297102.14000000001
31
0.
0
LINE
5
73380
100
AcDbEntity
8
ITR-7-FEKVESHATAR
6
0_18_-_Folyamatos_
62
7
100
AcDbLine
39
0.
10
886508.5
20
297102.14000000001
30
0.
11
886508.41000000003
21
297098.45000000001
31
0.
0
LINE
5
73381
100
AcDbEntity
8
ITR-7-FEKVESHATAR
6
0_18_-_Folyamatos_
62
7
100
AcDbLine
39
0.
10
886508.33999999997
20
297095.60999999999
30
0.
11
886508.27000000002
21
297092.81
31
0.
0
LINE
5
73382
100
AcDbEntity
8
ITR-7-FEKVESHATAR
6
0_18_-_Folyamatos_
62
7
100
AcDbLine
39
0.
10
886508.27000000002
20
297092.81
30
0.
11
886508.25
21
297091.81
31
0.
0
LINE
5
73383
100
AcDbEntity
8
ITR-7-FEKVESHATAR
6
0_18_-_Folyamatos_
62
7
100
AcDbLine
39
0.
10
886508.41000000003
20
297098.45000000001
30
0.
11
886508.35999999999
21
297096.5
31
0.
0
LINE
5
73384
100
AcDbEntity
8
ITR-7-FEKVESHATAR
6
0_18_-_Folyamatos_
62
7
100
AcDbLine
39
0.
10
886508.35999999999
20
297096.5
30
0.
11
886508.33999999997
21
297095.60999999999
31
0.
0
LINE
5
73385
100
AcDbEntity
8
ITR-7-FEKVESHATAR
6
0_18_-_Folyamatos_
62
7
100
AcDbLine
39
0.
10
886476.56000000006
20
297121.13
30
0.
11
886463.84999999998
21
297160.5
31
0.
0
LINE
5
73386
100
AcDbEntity
8
ITR-7-FEKVESHATAR
6
0_18_-_Folyamatos_
62
7
100
AcDbLine
39
0.
10
886520.80000000005
20
297039.02000000002
30
0.
11
886543.21999999997
21
297015.47999999998
31
0.
0
LINE
5
73387
100
AcDbEntity
8
ITR-7-FEKVESHATAR
6
0_18_-_Folyamatos_
62
7
100
AcDbLine
39
0.
10
886588.
20
297183.02000000002
30
0.
11
886594.52000000002
21
297184.20000000001
31
0.
0
LINE
5
73388
100
AcDbEntity
8
ITR-7-FEKVESHATAR
6
0_18_-_Folyamatos_
62
7
100
AcDbLine
39
0.
10
886594.52000000002
20
297184.20000000001
30
0.
11
886644.18000000005
21
297203.65999999997
31
0.
0
LINE
5
73389
100
AcDbEntity
8
ITR-7-FEKVESHATAR
6
0_18_-_Folyamatos_
62
7
100
AcDbLine
39
0.
10
886588.
20
297183.02000000002
30
0.
11
886581.15000000002
21
297181.77000000002
31
0.
0
LINE
5
7338a
100
AcDbEntity
8
ITR-7-FEKVESHATAR
6
0_18_-_Folyamatos_
62
7
100
AcDbLine
39
0.
10
886581.15000000002
20
297181.77000000002
30
0.
11
886466.66000000003
21
297161.02000000002
31
0.
0
LINE
5
7338b
100
AcDbEntity
8
ITR-7-FEKVESHATAR
6
0_18_-_Folyamatos_
62
7
100
AcDbLine
39
0.
10
886466.66000000003
20
297161.02000000002
30
0.
11
886463.84999999998
21
297160.5
31
0.
0
LINE
5
7338c
100
AcDbEntity
8
ITR-7-FEKVESHATAR
6
0_18_-_Folyamatos_
62
7
100
AcDbLine
39
0.
10
882299.38
20
296934.51000000001
30
0.
11
882294.05000000005
21
296952.53000000003
31
0.
0
LINE
5
7338d
100
AcDbEntity
8
ITR-7-FEKVESHATAR
6
0_18_-_Folyamatos_
62
7
100
AcDbLine
39
0.
10
882216.03000000003
20
296974.40999999997
30
0.
11
882281.88
21
296993.76000000001
31
0.
0
LINE
5
7338e
100
AcDbEntity
8
ITR-7-FEKVESHATAR
6
0_18_-_Folyamatos_
62
7
100
AcDbLine
39
0.
10
882216.03000000003
20
296974.40999999997
30
0.
11
882223.98999999999
21
296965.84000000003
31
0.
0
LINE
5
7338f
100
AcDbEntity
8
ITR-7-FEKVESHATAR
6
0_18_-_Folyamatos_
62
7
100
AcDbLine
39
0.
10
882234.90000000002
20
296954.08000000002
30
0.
11
882253.45999999996
21
296934.08000000002
31
0.
0
LINE
5
73390
100
AcDbEntity
8
ITR-7-FEKVESHATAR
6
0_18_-_Folyamatos_
62
7
100
AcDbLine
39
0.
10
882323.56999999995
20
296804.38
30
0.
11
882335.52000000002
21
296743.34000000003
31
0.
0
LINE
5
73391
100
AcDbEntity
8
ITR-7-FEKVESHATAR
6
0_18_-_Folyamatos_
62
7
100
AcDbLine
39
0.
10
882336.57999999996
20
296808.53000000003
30
0.
11
882319.18000000005
21
296867.44
31
0.
0
LINE
5
73392
100
AcDbEntity
8
ITR-7-FEKVESHATAR
6
0_18_-_Folyamatos_
62
7
100
AcDbLine
39
0.
10
882285.68999999994
20
296980.85999999999
30
0.
11
882281.88
21
296993.76000000001
31
0.
0
LINE
5
73393
100
AcDbEntity
8
ITR-7-FEKVESHATAR
6
0_18_-_Folyamatos_
62
7
100
AcDbLine
39
0.
10
882278.44999999995
20
296907.15000000002
30
0.
11
882304.15000000002
21
296879.46000000002
31
0.
0
LINE
5
73394
100
AcDbEntity
8
ITR-7-FEKVESHATAR
6
0_18_-_Folyamatos_
62
7
100
AcDbLine
39
0.
10
882260.67000000004
20
296926.31
30
0.
11
882278.44999999995
21
296907.15000000002
31
0.
0
LINE
5
73395
100
AcDbEntity
8
ITR-7-FEKVESHATAR
6
0_18_-_Folyamatos_
62
7
100
AcDbLine
39
0.
10
882223.98999999999
20
296965.84000000003
30
0.
11
882234.90000000002
21
296954.08000000002
31
0.
0
LINE
5
73396
100
AcDbEntity
8
ITR-7-FEKVESHATAR
6
0_18_-_Folyamatos_
62
7
100
AcDbLine
39
0.
10
882253.45999999996
20
296934.08000000002
30
0.
11
882260.67000000004
21
296926.31
31
0.
0
LINE
5
73397
100
AcDbEntity
8
ITR-7-FEKVESHATAR
6
0_18_-_Folyamatos_
62
7
100
AcDbLine
39
0.
10
882294.05000000005
20
296952.53000000003
30
0.
11
882289.71999999997
21
296967.20000000001
31
0.
0
LINE
5
73398
100
AcDbEntity
8
ITR-7-FEKVESHATAR
6
0_18_-_Folyamatos_
62
7
100
AcDbLine
39
0.
10
882306.06000000006
20
296911.88
30
0.
11
882299.38
21
296934.51000000001
31
0.
0
LINE
5
73399
100
AcDbEntity
8
ITR-7-FEKVESHATAR
6
0_18_-_Folyamatos_
62
7
100
AcDbLine
39
0.
10
882304.15000000002
20
296879.46000000002
30
0.
11
882308.79000000004
21
296863.39000000001
31
0.
0
LINE
5
7339a
100
AcDbEntity
8
ITR-7-FEKVESHATAR
6
0_18_-_Folyamatos_
62
7
100
AcDbLine
39
0.
10
882308.79000000004
20
296863.39000000001
30
0.
11
882318.80000000005
21
296828.71999999997
31
0.
0
LINE
5
7339b
100
AcDbEntity
8
ITR-7-FEKVESHATAR
6
0_18_-_Folyamatos_
62
7
100
AcDbLine
39
0.
10
882319.18000000005
20
296867.44
30
0.
11
882306.06000000006
21
296911.88
31
0.
0
LINE
5
7339c
100
AcDbEntity
8
ITR-7-FEKVESHATAR
6
0_18_-_Folyamatos_
62
7
100
AcDbLine
39
0.
10
882289.71999999997
20
296967.20000000001
30
0.
11
882285.68999999994
21
296980.85999999999
31
0.
0
LINE
5
7339d
100
AcDbEntity
8
ITR-7-FEKVESHATAR
6
0_18_-_Folyamatos_
62
7
100
AcDbLine
39
0.
10
882318.80000000005
20
296828.71999999997
30
0.
11
882323.56999999995
21
296804.38
31
0.
0
LINE
5
7339e
100
AcDbEntity
8
ITR-7-FEKVESHATAR
6
0_18_-_Folyamatos_
62
7
100
AcDbLine
39
0.
10
882187.5
20
297319.62
30
0.
11
882186.42000000004
21
297319.
31
0.
0
LINE
5
7339f
100
AcDbEntity
8
ITR-7-FEKVESHATAR
6
0_18_-_Folyamatos_
62
7
100
AcDbLine
39
0.
10
882186.42000000004
20
297319.
30
0.
11
882153.25
21
297299.91999999998
31
0.
0
LINE
5
733a0
100
AcDbEntity
8
ITR-7-FEKVESHATAR
6
0_18_-_Folyamatos_
62
7
100
AcDbLine
39
0.
10
882153.25
20
297299.91999999998
30
0.
11
882156.82999999996
21
297287.84000000003
31
0.
0
LINE
5
733a1
100
AcDbEntity
8
ITR-7-FEKVESHATAR
6
0_18_-_Folyamatos_
62
7
100
AcDbLine
39
0.
10
882156.82999999996
20
297287.84000000003
30
0.
11
882162.82999999996
21
297267.54999999999
31
0.
0
LINE
5
733a2
100
AcDbEntity
8
ITR-7-FEKVESHATAR
6
0_18_-_Folyamatos_
62
7
100
AcDbLine
39
0.
10
882162.82999999996
20
297267.54999999999
30
0.
11
882165.79000000004
21
297248.53000000003
31
0.
0
LINE
5
733a3
100
AcDbEntity
8
ITR-7-FEKVESHATAR
6
0_18_-_Folyamatos_
62
7
100
AcDbLine
39
0.
10
882165.79000000004
20
297248.53000000003
30
0.
11
882168.65000000002
21
297230.20000000001
31
0.
0
LINE
5
733a4
100
AcDbEntity
8
ITR-7-FEKVESHATAR
6
0_18_-_Folyamatos_
62
7
100
AcDbLine
39
0.
10
882168.65000000002
20
297230.20000000001
30
0.
11
882176.15000000002
21
297215.08000000002
31
0.
0
LINE
5
733a5
100
AcDbEntity
8
ITR-7-FEKVESHATAR
6
0_18_-_Folyamatos_
62
7
100
AcDbLine
39
0.
10
882176.15000000002
20
297215.08000000002
30
0.
11
882185.75
21
297195.71999999997
31
0.
0
LINE
5
733a6
100
AcDbEntity
8
ITR-7-FEKVESHATAR
6
0_18_-_Folyamatos_
62
7
100
AcDbLine
39
0.
10
882199.37
20
297278.65999999997
30
0.
11
882193.51000000001
21
297298.88
31
0.
0
LINE
5
733a7
100
AcDbEntity
8
ITR-7-FEKVESHATAR
6
0_18_-_Folyamatos_
62
7
100
AcDbLine
39
0.
10
882193.51000000001
20
297298.88
30
0.
11
882187.5
21
297319.62
31
0.
0
LINE
5
733a8
100
AcDbEntity
8
ITR-7-FEKVESHATAR
6
0_18_-_Folyamatos_
62
7
100
AcDbLine
39
0.
10
882278.04000000004
20
297007.15000000002
30
0.
11
882211.14000000001
21
296983.34999999998
31
0.
0
LINE
5
733a9
100
AcDbEntity
8
ITR-7-FEKVESHATAR
6
0_18_-_Folyamatos_
62
7
100
AcDbLine
39
0.
10
882278.04000000004
20
297007.15000000002
30
0.
11
882274.19999999995
21
297020.40000000002
31
0.
0
LINE
5
733aa
100
AcDbEntity
8
ITR-7-FEKVESHATAR
6
0_18_-_Folyamatos_
62
7
100
AcDbLine
39
0.
10
882209.40000000002
20
297148.03999999998
30
0.
11
882226.81999999995
21
297112.92999999999
31
0.
0
LINE
5
733ab
100
AcDbEntity
8
ITR-7-FEKVESHATAR
6
0_18_-_Folyamatos_
62
7
100
AcDbLine
39
0.
10
882226.81999999995
20
297112.92999999999
30
0.
11
882222.68000000005
21
297078.75
31
0.
0
LINE
5
733ac
100
AcDbEntity
8
ITR-7-FEKVESHATAR
6
0_18_-_Folyamatos_
62
7
100
AcDbLine
39
0.
10
882222.68000000005
20
297078.75
30
0.
11
882219.77000000002
21
297054.64000000001
31
0.
0
LINE
5
733ad
100
AcDbEntity
8
ITR-7-FEKVESHATAR
6
0_18_-_Folyamatos_
62
7
100
AcDbLine
39
0.
10
882219.77000000002
20
297054.64000000001
30
0.
11
882217.39000000001
21
297034.98999999999
31
0.
0
LINE
5
733ae
100
AcDbEntity
8
ITR-7-FEKVESHATAR
6
0_18_-_Folyamatos_
62
7
100
AcDbLine
39
0.
10
882217.39000000001
20
297034.98999999999
30
0.
11
882215.31000000006
21
297017.83000000002
31
0.
0
LINE
5
733af
100
AcDbEntity
8
ITR-7-FEKVESHATAR
6
0_18_-_Folyamatos_
62
7
100
AcDbLine
39
0.
10
882215.31000000006
20
297017.83000000002
30
0.
11
882213.43000000005
21
297002.25
31
0.
0
LINE
5
733b0
100
AcDbEntity
8
ITR-7-FEKVESHATAR
6
0_18_-_Folyamatos_
62
7
100
AcDbLine
39
0.
10
882213.43000000005
20
297002.25
30
0.
11
882211.14000000001
21
296983.34999999998
31
0.
0
LINE
5
733b1
100
AcDbEntity
8
ITR-7-FEKVESHATAR
6
0_18_-_Folyamatos_
62
7
100
AcDbLine
39
0.
10
882274.19999999995
20
297020.40000000002
30
0.
11
882270.18999999994
21
297034.22999999998
31
0.
0
LINE
5
733b2
100
AcDbEntity
8
ITR-7-FEKVESHATAR
6
0_18_-_Folyamatos_
62
7
100
AcDbLine
39
0.
10
882270.18999999994
20
297034.22999999998
30
0.
11
882265.77000000002
21
297049.5
31
0.
0
LINE
5
733b3
100
AcDbEntity
8
ITR-7-FEKVESHATAR
6
0_18_-_Folyamatos_
62
7
100
AcDbLine
39
0.
10
882265.77000000002
20
297049.5
30
0.
11
882260.72999999998
21
297066.88
31
0.
0
LINE
5
733b4
100
AcDbEntity
8
ITR-7-FEKVESHATAR
6
0_18_-_Folyamatos_
62
7
100
AcDbLine
39
0.
10
882260.72999999998
20
297066.88
30
0.
11
882254.75
21
297087.52000000002
31
0.
0
LINE
5
733b5
100
AcDbEntity
8
ITR-7-FEKVESHATAR
6
0_18_-_Folyamatos_
62
7
100
AcDbLine
39
0.
10
882254.75
20
297087.52000000002
30
0.
11
882245.54000000004
21
297119.31
31
0.
0
LINE
5
733b6
100
AcDbEntity
8
ITR-7-FEKVESHATAR
6
0_18_-_Folyamatos_
62
7
100
AcDbLine
39
0.
10
882245.54000000004
20
297119.31
30
0.
11
882235.18999999994
21
297155.03000000003
31
0.
0
LINE
5
733b7
100
AcDbEntity
8
ITR-7-FEKVESHATAR
6
0_18_-_Folyamatos_
62
7
100
AcDbLine
39
0.
10
882235.18999999994
20
297155.03000000003
30
0.
11
882227.33999999997
21
297182.10999999999
31
0.
0
LINE
5
733b8
100
AcDbEntity
8
ITR-7-FEKVESHATAR
6
0_18_-_Folyamatos_
62
7
100
AcDbLine
39
0.
10
882227.33999999997
20
297182.10999999999
30
0.
11
882220.5
21
297205.72999999998
31
0.
0
LINE
5
733b9
100
AcDbEntity
8
ITR-7-FEKVESHATAR
6
0_18_-_Folyamatos_
62
7
100
AcDbLine
39
0.
10
882220.5
20
297205.72999999998
30
0.
11
882214.47999999998
21
297226.52000000002
31
0.
0
LINE
5
733ba
100
AcDbEntity
8
ITR-7-FEKVESHATAR
6
0_18_-_Folyamatos_
62
7
100
AcDbLine
39
0.
10
882214.47999999998
20
297226.52000000002
30
0.
11
882209.54000000004
21
297243.57000000001
31
0.
0
LINE
5
733bb
100
AcDbEntity
8
ITR-7-FEKVESHATAR
6
0_18_-_Folyamatos_
62
7
100
AcDbLine
39
0.
10
882209.54000000004
20
297243.57000000001
30
0.
11
882204.53000000003
21
297260.84999999998
31
0.
0
LINE
5
733bc
100
AcDbEntity
8
ITR-7-FEKVESHATAR
6
0_18_-_Folyamatos_
62
7
100
AcDbLine
39
0.
10
882204.53000000003
20
297260.84999999998
30
0.
11
882199.37
21
297278.65999999997
31
0.
0
LINE
5
733bd
100
AcDbEntity
8
ITR-7-FEKVESHATAR
6
0_18_-_Folyamatos_
62
7
100
AcDbLine
39
0.
10
882092.27000000002
20
297596.09999999998
30
0.
11
882081.84999999998
21
297629.13
31
0.
0
LINE
5
733be
100
AcDbEntity
8
ITR-7-FEKVESHATAR
6
0_18_-_Folyamatos_
62
7
100
AcDbLine
39
0.
10
882092.27000000002
20
297596.09999999998
30
0.
11
882095.43999999994
21
297585.71999999997
31
0.
0
LINE
5
733bf
100
AcDbEntity
8
ITR-7-FEKVESHATAR
6
0_18_-_Folyamatos_
62
7
100
AcDbLine
39
0.
10
882095.43999999994
20
297585.71999999997
30
0.
11
882097.40000000002
21
297579.45000000001
31
0.
0
LINE
5
733c0
100
AcDbEntity
8
ITR-7-FEKVESHATAR
6
0_18_-_Folyamatos_
62
7
100
AcDbLine
39
0.
10
882097.40000000002
20
297579.45000000001
30
0.
11
882099.39000000001
21
297573.09999999998
31
0.
0
LINE
5
733c1
100
AcDbEntity
8
ITR-7-FEKVESHATAR
6
0_18_-_Folyamatos_
62
7
100
AcDbLine
39
0.
10
882099.39000000001
20
297573.09999999998
30
0.
11
882131.46999999997
21
297484.20000000001
31
0.
0
LINE
5
733c2
100
AcDbEntity
8
ITR-7-FEKVESHATAR
6
0_18_-_Folyamatos_
62
7
100
AcDbLine
39
0.
10
882131.46999999997
20
297484.20000000001
30
0.
11
882138.47999999998
21
297486.38
31
0.
0
LINE
5
733c3
100
AcDbEntity
8
ITR-7-FEKVESHATAR
6
0_18_-_Folyamatos_
62
7
100
AcDbLine
39
0.
10
882138.47999999998
20
297486.38
30
0.
11
882140.80000000005
21
297487.09999999998
31
0.
0
LINE
5
733c4
100
AcDbEntity
8
ITR-7-FEKVESHATAR
6
0_18_-_Folyamatos_
62
7
100
AcDbLine
39
0.
10
882140.80000000005
20
297487.09999999998
30
0.
11
882130.23999999999
21
297522.63
31
0.
0
LINE
5
733c5
100
AcDbEntity
8
ITR-7-FEKVESHATAR
6
0_18_-_Folyamatos_
62
7
100
AcDbLine
39
0.
10
882130.23999999999
20
297522.63
30
0.
11
882123.10999999999
21
297545.26000000001
31
0.
0
LINE
5
733c6
100
AcDbEntity
8
ITR-7-FEKVESHATAR
6
0_18_-_Folyamatos_
62
7
100
AcDbLine
39
0.
10
882111.73999999999
20
297577.46999999997
30
0.
11
882119.19999999995
21
297580.15999999997
31
0.
0
LINE
5
733c7
100
AcDbEntity
8
ITR-7-FEKVESHATAR
6
0_18_-_Folyamatos_
62
7
100
AcDbLine
39
0.
10
882111.73999999999
20
297577.46999999997
30
0.
11
882123.10999999999
21
297545.26000000001
31
0.
0
LINE
5
733c8
100
AcDbEntity
8
ITR-7-FEKVESHATAR
6
0_18_-_Folyamatos_
62
7
100
AcDbLine
39
0.
10
882114.66000000003
20
297590.59999999998
30
0.
11
882119.19999999995
21
297580.15999999997
31
0.
0
LINE
5
733c9
100
AcDbEntity
8
ITR-7-FEKVESHATAR
6
0_18_-_Folyamatos_
62
7
100
AcDbLine
39
0.
10
882051.98999999999
20
297848.62
30
0.
11
882055.03000000003
21
297831.70000000001
31
0.
0
LINE
5
733ca
100
AcDbEntity
8
ITR-7-FEKVESHATAR
6
0_18_-_Folyamatos_
62
7
100
AcDbLine
39
0.
10
882049.06000000006
20
297864.95000000001
30
0.
11
882051.98999999999
21
297848.62
31
0.
0
LINE
5
733cb
100
AcDbEntity
8
ITR-7-FEKVESHATAR
6
0_18_-_Folyamatos_
62
7
100
AcDbLine
39
0.
10
882007.08999999997
20
297801.07000000001
30
0.
11
882002.69999999995
21
297817.71999999997
31
0.
0
LINE
5
733cc
100
AcDbEntity
8
ITR-7-FEKVESHATAR
6
0_18_-_Folyamatos_
62
7
100
AcDbLine
39
0.
10
882002.69999999995
20
297817.71999999997
30
0.
11
881999.
21
297831.75
31
0.
0
LINE
5
733cd
100
AcDbEntity
8
ITR-7-FEKVESHATAR
6
0_18_-_Folyamatos_
62
7
100
AcDbLine
39
0.
10
882057.5
20
297817.91999999998
30
0.
11
882060.69999999995
21
297800.10999999999
31
0.
0
LINE
5
733ce
100
AcDbEntity
8
ITR-7-FEKVESHATAR
6
0_18_-_Folyamatos_
62
7
100
AcDbLine
39
0.
10
882055.03000000003
20
297831.70000000001
30
0.
11
882057.5
21
297817.91999999998
31
0.
0
LINE
5
733cf
100
AcDbEntity
8
ITR-7-FEKVESHATAR
6
0_18_-_Folyamatos_
62
7
100
AcDbLine
39
0.
10
882060.69999999995
20
297800.10999999999
30
0.
11
882065.19999999995
21
297778.77000000002
31
0.
0
LINE
5
733d0
100
AcDbEntity
8
ITR-7-FEKVESHATAR
6
0_18_-_Folyamatos_
62
7
100
AcDbLine
39
0.
10
882045.93000000005
20
297882.37
30
0.
11
882049.06000000006
21
297864.95000000001
31
0.
0
LINE
5
733d1
100
AcDbEntity
8
ITR-7-FEKVESHATAR
6
0_18_-_Folyamatos_
62
7
100
AcDbLine
39
0.
10
882045.93000000005
20
297882.37
30
0.
11
882043.43000000005
21
297894.84999999998
31
0.
0
LINE
5
733d2
100
AcDbEntity
8
ITR-7-FEKVESHATAR
6
0_18_-_Folyamatos_
62
7
100
AcDbLine
39
0.
10
882043.43000000005
20
297894.84999999998
30
0.
11
882041.85999999999
21
297902.67999999999
31
0.
0
LINE
5
733d3
100
AcDbEntity
8
ITR-7-FEKVESHATAR
6
0_18_-_Folyamatos_
62
7
100
AcDbLine
39
0.
10
882041.85999999999
20
297902.67999999999
30
0.
11
881995.46999999997
21
297881.10999999999
31
0.
0
LINE
5
733d4
100
AcDbEntity
8
ITR-7-FEKVESHATAR
6
0_18_-_Folyamatos_
62
7
100
AcDbLine
39
0.
10
882065.43999999994
20
297681.53000000003
30
0.
11
882046.25
21
297718.21999999997
31
0.
0
LINE
5
733d5
100
AcDbEntity
8
ITR-7-FEKVESHATAR
6
0_18_-_Folyamatos_
62
7
100
AcDbLine
39
0.
10
882074.82999999996
20
297726.28999999998
30
0.
11
882082.34999999998
21
297685.29999999999
31
0.
0
LINE
5
733d6
100
AcDbEntity
8
ITR-7-FEKVESHATAR
6
0_18_-_Folyamatos_
62
7
100
AcDbLine
39
0.
10
882017.28000000003
20
297785.54999999999
30
0.
11
882007.08999999997
21
297801.07000000001
31
0.
0
LINE
5
733d7
100
AcDbEntity
8
ITR-7-FEKVESHATAR
6
0_18_-_Folyamatos_
62
7
100
AcDbLine
39
0.
10
882069.5
20
297755.33000000002
30
0.
11
882074.82999999996
21
297726.28999999998
31
0.
0
LINE
5
733d8
100
AcDbEntity
8
ITR-7-FEKVESHATAR
6
0_18_-_Folyamatos_
62
7
100
AcDbLine
39
0.
10
882046.25
20
297718.21999999997
30
0.
11
882035.18000000005
21
297743.96000000002
31
0.
0
LINE
5
733d9
100
AcDbEntity
8
ITR-7-FEKVESHATAR
6
0_18_-_Folyamatos_
62
7
100
AcDbLine
39
0.
10
882082.34999999998
20
297685.29999999999
30
0.
11
882088.03000000003
21
297655.40999999997
31
0.
0
LINE
5
733da
100
AcDbEntity
8
ITR-7-FEKVESHATAR
6
0_18_-_Folyamatos_
62
7
100
AcDbLine
39
0.
10
882095.68000000005
20
297634.26000000001
30
0.
11
882109.35999999999
21
297602.78000000003
31
0.
0
LINE
5
733db
100
AcDbEntity
8
ITR-7-FEKVESHATAR
6
0_18_-_Folyamatos_
62
7
100
AcDbLine
39
0.
10
882081.84999999998
20
297629.13
30
0.
11
882065.43999999994
21
297681.53000000003
31
0.
0
LINE
5
733dc
100
AcDbEntity
8
ITR-7-FEKVESHATAR
6
0_18_-_Folyamatos_
62
7
100
AcDbLine
39
0.
10
882109.35999999999
20
297602.78000000003
30
0.
11
882114.66000000003
21
297590.59999999998
31
0.
0
LINE
5
733dd
100
AcDbEntity
8
ITR-7-FEKVESHATAR
6
0_18_-_Folyamatos_
62
7
100
AcDbLine
39
0.
10
882088.03000000003
20
297655.40999999997
30
0.
11
882095.68000000005
21
297634.26000000001
31
0.
0
LINE
5
733de
100
AcDbEntity
8
ITR-7-FEKVESHATAR
6
0_18_-_Folyamatos_
62
7
100
AcDbLine
39
0.
10
882065.19999999995
20
297778.77000000002
30
0.
11
882069.5
21
297755.33000000002
31
0.
0
LINE
5
733df
100
AcDbEntity
8
ITR-7-FEKVESHATAR
6
0_18_-_Folyamatos_
62
7
100
AcDbLine
39
0.
10
882035.18000000005
20
297743.96000000002
30
0.
11
882025.81999999995
21
297765.70000000001
31
0.
0
LINE
5
733e0
100
AcDbEntity
8
ITR-7-FEKVESHATAR
6
0_18_-_Folyamatos_
62
7
100
AcDbLine
39
0.
10
882025.81999999995
20
297765.70000000001
30
0.
11
882017.28000000003
21
297785.54999999999
31
0.
0
LINE
5
733e1
100
AcDbEntity
8
ITR-7-FEKVESHATAR
6
0_18_-_Folyamatos_
62
7
100
AcDbLine
39
0.
10
881991.07999999996
20
297880.64000000001
30
0.
11
881995.93999999994
21
297862.95000000001
31
0.
0
LINE
5
733e2
100
AcDbEntity
8
ITR-7-FEKVESHATAR
6
0_18_-_Folyamatos_
62
7
100
AcDbLine
39
0.
10
881995.46999999997
20
297881.10999999999
30
0.
11
881991.07999999996
21
297880.64000000001
31
0.
0
LINE
5
733e3
100
AcDbEntity
8
ITR-7-FEKVESHATAR
6
0_18_-_Folyamatos_
62
7
100
AcDbLine
39
0.
10
881997.48999999999
20
297847.13
30
0.
11
881995.93999999994
21
297862.95000000001
31
0.
0
LINE
5
733e4
100
AcDbEntity
8
ITR-7-FEKVESHATAR
6
0_18_-_Folyamatos_
62
7
100
AcDbLine
39
0.
10
881999.
20
297831.75
30
0.
11
881997.48999999999
21
297847.13
31
0.
0
LINE
5
733e5
100
AcDbEntity
8
ITR-7-FEKVESHATAR
6
0_18_-_Folyamatos_
62
7
100
AcDbLine
39
0.
10
882184.31999999995
20
296650.81
30
0.
11
882188.55000000005
21
296641.41999999998
31
0.
0
LINE
5
733e6
100
AcDbEntity
8
ITR-7-FEKVESHATAR
6
0_18_-_Folyamatos_
62
7
100
AcDbLine
39
0.
10
882188.55000000005
20
296641.41999999998
30
0.
11
882192.95999999996
21
296631.63
31
0.
0
LINE
5
733e7
100
AcDbEntity
8
ITR-7-FEKVESHATAR
6
0_18_-_Folyamatos_
62
7
100
AcDbLine
39
0.
10
882198.43000000005
20
296619.48999999999
30
0.
11
882201.67000000004
21
296612.31
31
0.
0
LINE
5
733e8
100
AcDbEntity
8
ITR-7-FEKVESHATAR
6
0_18_-_Folyamatos_
62
7
100
AcDbLine
39
0.
10
882192.95999999996
20
296631.63
30
0.
11
882197.35999999999
21
296621.88
31
0.
0
LINE
5
733e9
100
AcDbEntity
8
ITR-7-FEKVESHATAR
6
0_18_-_Folyamatos_
62
7
100
AcDbLine
39
0.
10
882197.35999999999
20
296621.88
30
0.
11
882198.43000000005
21
296619.48999999999
31
0.
0
LINE
5
733ea
100
AcDbEntity
8
ITR-7-FEKVESHATAR
6
0_18_-_Folyamatos_
62
7
100
AcDbLine
39
0.
10
882171.40000000002
20
296679.46999999997
30
0.
11
882184.31999999995
21
296650.81
31
0.
0
LINE
5
733eb
100
AcDbEntity
8
ITR-7-FEKVESHATAR
6
0_18_-_Folyamatos_
62
7
100
AcDbLine
39
0.
10
882412.12
20
296418.04999999999
30
0.
11
882429.46999999997
21
296388.40999999997
31
0.
0
LINE
5
733ec
100
AcDbEntity
8
ITR-7-FEKVESHATAR
6
0_18_-_Folyamatos_
62
7
100
AcDbLine
39
0.
10
882408.
20
296425.08000000002
30
0.
11
882393.94999999995
21
296422.33000000002
31
0.
0
LINE
5
733ed
100
AcDbEntity
8
ITR-7-FEKVESHATAR
6
0_18_-_Folyamatos_
62
7
100
AcDbLine
39
0.
10
882408.
20
296425.08000000002
30
0.
11
882412.12
21
296418.04999999999
31
0.
0
LINE
5
733ee
100
AcDbEntity
8
ITR-7-FEKVESHATAR
6
0_18_-_Folyamatos_
62
7
100
AcDbLine
39
0.
10
882402.70999999996
20
296584.60999999999
30
0.
11
882398.37
21
296599.28000000003
31
0.
0
LINE
5
733ef
100
AcDbEntity
8
ITR-7-FEKVESHATAR
6
0_18_-_Folyamatos_
62
7
100
AcDbLine
39
0.
10
882406.93000000005
20
296570.32000000001
30
0.
11
882402.70999999996
21
296584.60999999999
31
0.
0
LINE
5
733f0
100
AcDbEntity
8
ITR-7-FEKVESHATAR
6
0_18_-_Folyamatos_
62
7
100
AcDbLine
39
0.
10
882412.66000000003
20
296550.90999999997
30
0.
11
882411.08999999997
21
296556.22999999998
31
0.
0
LINE
5
733f1
100
AcDbEntity
8
ITR-7-FEKVESHATAR
6
0_18_-_Folyamatos_
62
7
100
AcDbLine
39
0.
10
882411.08999999997
20
296556.22999999998
30
0.
11
882406.93000000005
21
296570.32000000001
31
0.
0
LINE
5
733f2
100
AcDbEntity
8
ITR-7-FEKVESHATAR
6
0_18_-_Folyamatos_
62
7
100
AcDbLine
39
0.
10
882416.95999999996
20
296536.33000000002
30
0.
11
882412.66000000003
21
296550.90999999997
31
0.
0
LINE
5
733f3
100
AcDbEntity
8
ITR-7-FEKVESHATAR
6
0_18_-_Folyamatos_
62
7
100
AcDbLine
39
0.
10
882421.20999999996
20
296521.95000000001
30
0.
11
882416.95999999996
21
296536.33000000002
31
0.
0
LINE
5
733f4
100
AcDbEntity
8
ITR-7-FEKVESHATAR
6
0_18_-_Folyamatos_
62
7
100
AcDbLine
39
0.
10
882425.43000000005
20
296507.66999999998
30
0.
11
882421.20999999996
21
296521.95000000001
31
0.
0
LINE
5
733f5
100
AcDbEntity
8
ITR-7-FEKVESHATAR
6
0_18_-_Folyamatos_
62
7
100
AcDbLine
39
0.
10
882429.68000000005
20
296493.28999999998
30
0.
11
882425.43000000005
21
296507.66999999998
31
0.
0
LINE
5
733f6
100
AcDbEntity
8
ITR-7-FEKVESHATAR
6
0_18_-_Folyamatos_
62
7
100
AcDbLine
39
0.
10
882438.14000000001
20
296464.62
30
0.
11
882433.84999999998
21
296479.14000000001
31
0.
0
LINE
5
733f7
100
AcDbEntity
8
ITR-7-FEKVESHATAR
6
0_18_-_Folyamatos_
62
7
100
AcDbLine
39
0.
10
882433.84999999998
20
296479.14000000001
30
0.
11
882429.68000000005
21
296493.28999999998
31
0.
0
LINE
5
733f8
100
AcDbEntity
8
ITR-7-FEKVESHATAR
6
0_18_-_Folyamatos_
62
7
100
AcDbLine
39
0.
10
882442.37
20
296450.28999999998
30
0.
11
882438.14000000001
21
296464.62
31
0.
0
LINE
5
733f9
100
AcDbEntity
8
ITR-7-FEKVESHATAR
6
0_18_-_Folyamatos_
62
7
100
AcDbLine
39
0.
10
882447.68000000005
20
296432.31
30
0.
11
882442.37
21
296450.28999999998
31
0.
0
LINE
5
733fa
100
AcDbEntity
8
ITR-7-FEKVESHATAR
6
0_18_-_Folyamatos_
62
7
100
AcDbLine
39
0.
10
882201.67000000004
20
296612.31
30
0.
11
882206.06999999995
21
296602.56
31
0.
0
LINE
5
733fb
100
AcDbEntity
8
ITR-7-FEKVESHATAR
6
0_18_-_Folyamatos_
62
7
100
AcDbLine
39
0.
10
882206.06999999995
20
296602.56
30
0.
11
882210.84999999998
21
296591.94
31
0.
0
LINE
5
733fc
100
AcDbEntity
8
ITR-7-FEKVESHATAR
6
0_18_-_Folyamatos_
62
7
100
AcDbLine
39
0.
10
882354.18000000005
20
296748.94
30
0.
11
882336.57999999996
21
296808.53000000003
31
0.
0
LINE
5
733fd
100
AcDbEntity
8
ITR-7-FEKVESHATAR
6
0_18_-_Folyamatos_
62
7
100
AcDbLine
39
0.
10
882368.45999999996
20
296700.57000000001
30
0.
11
882354.18000000005
21
296748.94
31
0.
0
LINE
5
733fe
100
AcDbEntity
8
ITR-7-FEKVESHATAR
6
0_18_-_Folyamatos_
62
7
100
AcDbLine
39
0.
10
882372.93999999994
20
296685.41999999998
30
0.
11
882368.45999999996
21
296700.57000000001
31
0.
0
LINE
5
733ff
100
AcDbEntity
8
ITR-7-FEKVESHATAR
6
0_18_-_Folyamatos_
62
7
100
AcDbLine
39
0.
10
882377.18000000005
20
296671.03999999998
30
0.
11
882372.93999999994
21
296685.41999999998
31
0.
0
LINE
5
73400
100
AcDbEntity
8
ITR-7-FEKVESHATAR
6
0_18_-_Folyamatos_
62
7
100
AcDbLine
39
0.
10
882385.71999999997
20
296642.13
30
0.
11
882381.43000000005
21
296656.65999999997
31
0.
0
LINE
5
73401
100
AcDbEntity
8
ITR-7-FEKVESHATAR
6
0_18_-_Folyamatos_
62
7
100
AcDbLine
39
0.
10
882381.43000000005
20
296656.65999999997
30
0.
11
882377.18000000005
21
296671.03999999998
31
0.
0
LINE
5
73402
100
AcDbEntity
8
ITR-7-FEKVESHATAR
6
0_18_-_Folyamatos_
62
7
100
AcDbLine
39
0.
10
882389.88
20
296628.03999999998
30
0.
11
882385.71999999997
21
296642.13
31
0.
0
LINE
5
73403
100
AcDbEntity
8
ITR-7-FEKVESHATAR
6
0_18_-_Folyamatos_
62
7
100
AcDbLine
39
0.
10
882394.18000000005
20
296613.46999999997
30
0.
11
882389.88
21
296628.03999999998
31
0.
0
LINE
5
73404
100
AcDbEntity
8
ITR-7-FEKVESHATAR
6
0_18_-_Folyamatos_
62
7
100
AcDbLine
39
0.
10
882257.21999999997
20
296689.06
30
0.
11
882253.40000000002
21
296688.64000000001
31
0.
0
LINE
5
73405
100
AcDbEntity
8
ITR-7-FEKVESHATAR
6
0_18_-_Folyamatos_
62
7
100
AcDbLine
39
0.
10
882253.40000000002
20
296688.64000000001
30
0.
11
882171.40000000002
21
296679.46999999997
31
0.
0
LINE
5
73406
100
AcDbEntity
8
ITR-7-FEKVESHATAR
6
0_18_-_Folyamatos_
62
7
100
AcDbLine
39
0.
10
882314.83999999997
20
296695.5
30
0.
11
882310.85999999999
21
296695.06
31
0.
0
LINE
5
73407
100
AcDbEntity
8
ITR-7-FEKVESHATAR
6
0_18_-_Folyamatos_
62
7
100
AcDbLine
39
0.
10
882310.85999999999
20
296695.06
30
0.
11
882257.21999999997
21
296689.06
31
0.
0
LINE
5
73408
100
AcDbEntity
8
ITR-7-FEKVESHATAR
6
0_18_-_Folyamatos_
62
7
100
AcDbLine
39
0.
10
882344.23999999999
20
296698.78999999998
30
0.
11
882314.83999999997
21
296695.5
31
0.
0
LINE
5
73409
100
AcDbEntity
8
ITR-7-FEKVESHATAR
6
0_18_-_Folyamatos_
62
7
100
AcDbLine
39
0.
10
882335.52000000002
20
296743.34000000003
30
0.
11
882344.23999999999
21
296698.78999999998
31
0.
0
LINE
5
7340a
100
AcDbEntity
8
ITR-7-FEKVESHATAR
6
0_18_-_Folyamatos_
62
7
100
AcDbLine
39
0.
10
882393.94999999995
20
296422.33000000002
30
0.
11
882382.16000000003
21
296449.58000000002
31
0.
0
LINE
5
7340b
100
AcDbEntity
8
ITR-7-FEKVESHATAR
6
0_18_-_Folyamatos_
62
7
100
AcDbLine
39
0.
10
882398.37
20
296599.28000000003
30
0.
11
882394.18000000005
21
296613.46999999997
31
0.
0
LINE
5
7340c
100
AcDbEntity
8
ITR-7-FEKVESHATAR
6
0_18_-_Folyamatos_
62
7
100
AcDbLine
39
0.
10
882327.17000000004
20
296432.67999999999
30
0.
11
882330.98999999999
21
296433.84999999998
31
0.
0
LINE
5
7340d
100
AcDbEntity
8
ITR-7-FEKVESHATAR
6
0_18_-_Folyamatos_
62
7
100
AcDbLine
39
0.
10
882330.98999999999
20
296433.84999999998
30
0.
11
882382.16000000003
21
296449.58000000002
31
0.
0
LINE
5
7340e
100
AcDbEntity
8
ITR-7-FEKVESHATAR
6
0_18_-_Folyamatos_
62
7
100
AcDbLine
39
0.
10
882262.56000000006
20
296477.21000000002
30
0.
11
882266.75
21
296467.90999999997
31
0.
0
LINE
5
7340f
100
AcDbEntity
8
ITR-7-FEKVESHATAR
6
0_18_-_Folyamatos_
62
7
100
AcDbLine
39
0.
10
882266.75
20
296467.90999999997
30
0.
11
882275.43000000005
21
296462.84999999998
31
0.
0
LINE
5
73410
100
AcDbEntity
8
ITR-7-FEKVESHATAR
6
0_18_-_Folyamatos_
62
7
100
AcDbLine
39
0.
10
882275.43000000005
20
296462.84999999998
30
0.
11
882327.17000000004
21
296432.67999999999
31
0.
0
LINE
5
73411
100
AcDbEntity
8
ITR-7-FEKVESHATAR
6
0_18_-_Folyamatos_
62
7
100
AcDbLine
39
0.
10
882253.47999999998
20
296497.34999999998
30
0.
11
882255.78000000003
21
296492.23999999999
31
0.
0
LINE
5
73412
100
AcDbEntity
8
ITR-7-FEKVESHATAR
6
0_18_-_Folyamatos_
62
7
100
AcDbLine
39
0.
10
882255.78000000003
20
296492.23999999999
30
0.
11
882262.56000000006
21
296477.21000000002
31
0.
0
LINE
5
73413
100
AcDbEntity
8
ITR-7-FEKVESHATAR
6
0_18_-_Folyamatos_
62
7
100
AcDbLine
39
0.
10
882247.53000000003
20
296510.56
30
0.
11
882253.47999999998
21
296497.34999999998
31
0.
0
LINE
5
73414
100
AcDbEntity
8
ITR-7-FEKVESHATAR
6
0_18_-_Folyamatos_
62
7
100
AcDbLine
39
0.
10
882241.55000000005
20
296523.82000000001
30
0.
11
882247.53000000003
21
296510.56
31
0.
0
LINE
5
73415
100
AcDbEntity
8
ITR-7-FEKVESHATAR
6
0_18_-_Folyamatos_
62
7
100
AcDbLine
39
0.
10
882236.05000000005
20
296536.03000000003
30
0.
11
882241.55000000005
21
296523.82000000001
31
0.
0
LINE
5
73416
100
AcDbEntity
8
ITR-7-FEKVESHATAR
6
0_18_-_Folyamatos_
62
7
100
AcDbLine
39
0.
10
882225.44999999995
20
296559.53999999998
30
0.
11
882230.82999999996
21
296547.59999999998
31
0.
0
LINE
5
73417
100
AcDbEntity
8
ITR-7-FEKVESHATAR
6
0_18_-_Folyamatos_
62
7
100
AcDbLine
39
0.
10
882230.82999999996
20
296547.59999999998
30
0.
11
882236.05000000005
21
296536.03000000003
31
0.
0
LINE
5
73418
100
AcDbEntity
8
ITR-7-FEKVESHATAR
6
0_18_-_Folyamatos_
62
7
100
AcDbLine
39
0.
10
882220.67000000004
20
296570.15999999997
30
0.
11
882225.44999999995
21
296559.53999999998
31
0.
0
LINE
5
73419
100
AcDbEntity
8
ITR-7-FEKVESHATAR
6
0_18_-_Folyamatos_
62
7
100
AcDbLine
39
0.
10
882210.84999999998
20
296591.94
30
0.
11
882215.66000000003
21
296581.28000000003
31
0.
0
LINE
5
7341a
100
AcDbEntity
8
ITR-7-FEKVESHATAR
6
0_18_-_Folyamatos_
62
7
100
AcDbLine
39
0.
10
882215.66000000003
20
296581.28000000003
30
0.
11
882220.67000000004
21
296570.15999999997
31
0.
0
LINE
5
7341b
100
AcDbEntity
8
ITR-7-FEKVESHATAR
6
0_18_-_Folyamatos_
62
7
100
AcDbLine
39
0.
10
882458.13
20
296396.92999999999
30
0.
11
882429.46999999997
21
296388.40999999997
31
0.
0
LINE
5
7341c
100
AcDbEntity
8
ITR-7-FEKVESHATAR
6
0_18_-_Folyamatos_
62
7
100
AcDbLine
39
0.
10
882458.13
20
296396.92999999999
30
0.
11
882447.68000000005
21
296432.31
31
0.
0
LINE
5
7341d
100
AcDbEntity
8
ITR-7-FEKVESHATAR
6
0_18_-_Folyamatos_
62
7
100
AcDbLine
39
0.
10
884288.04000000004
20
295710.88
30
0.
11
884288.52000000002
21
295711.06
31
0.
0
LINE
5
7341e
100
AcDbEntity
8
ITR-7-FEKVESHATAR
6
0_18_-_Folyamatos_
62
7
100
AcDbLine
39
0.
10
884291.96999999997
20
295712.35999999999
30
0.
11
884288.52000000002
21
295711.06
31
0.
0
LINE
5
7341f
100
AcDbEntity
8
ITR-7-FEKVESHATAR
6
0_18_-_Folyamatos_
62
7
100
AcDbLine
39
0.
10
884364.92000000004
20
295739.72999999998
30
0.
11
884360.18000000005
21
295737.95000000001
31
0.
0
LINE
5
73420
100
AcDbEntity
8
ITR-7-FEKVESHATAR
6
0_18_-_Folyamatos_
62
7
100
AcDbLine
39
0.
10
884320.06999999995
20
295722.90000000002
30
0.
11
884326.76000000001
21
295725.40999999997
31
0.
0
LINE
5
73421
100
AcDbEntity
8
ITR-7-FEKVESHATAR
6
0_18_-_Folyamatos_
62
7
100
AcDbLine
39
0.
10
884326.76000000001
20
295725.40999999997
30
0.
11
884332.76000000001
21
295727.65999999997
31
0.
0
LINE
5
73422
100
AcDbEntity
8
ITR-7-FEKVESHATAR
6
0_18_-_Folyamatos_
62
7
100
AcDbLine
39
0.
10
884332.76000000001
20
295727.65999999997
30
0.
11
884336.64000000001
21
295729.12
31
0.
0
LINE
5
73423
100
AcDbEntity
8
ITR-7-FEKVESHATAR
6
0_18_-_Folyamatos_
62
7
100
AcDbLine
39
0.
10
884336.64000000001
20
295729.12
30
0.
11
884341.18000000005
21
295730.82000000001
31
0.
0
LINE
5
73424
100
AcDbEntity
8
ITR-7-FEKVESHATAR
6
0_18_-_Folyamatos_
62
7
100
AcDbLine
39
0.
10
884320.06999999995
20
295722.90000000002
30
0.
11
884291.96999999997
21
295712.35999999999
31
0.
0
LINE
5
73425
100
AcDbEntity
8
ITR-7-FEKVESHATAR
6
0_18_-_Folyamatos_
62
7
100
AcDbLine
39
0.
10
884396.
20
295751.39000000001
30
0.
11
884387.51000000001
21
295748.20000000001
31
0.
0
LINE
5
73426
100
AcDbEntity
8
ITR-7-FEKVESHATAR
6
0_18_-_Folyamatos_
62
7
100
AcDbLine
39
0.
10
884387.51000000001
20
295748.20000000001
30
0.
11
884380.15000000002
21
295745.44
31
0.
0
LINE
5
73427
100
AcDbEntity
8
ITR-7-FEKVESHATAR
6
0_18_-_Folyamatos_
62
7
100
AcDbLine
39
0.
10
884380.15000000002
20
295745.44
30
0.
11
884370.75
21
295741.90999999997
31
0.
0
LINE
5
73428
100
AcDbEntity
8
ITR-7-FEKVESHATAR
6
0_18_-_Folyamatos_
62
7
100
AcDbLine
39
0.
10
884341.18000000005
20
295730.82000000001
30
0.
11
884360.18000000005
21
295737.95000000001
31
0.
0
LINE
5
73429
100
AcDbEntity
8
ITR-7-FEKVESHATAR
6
0_18_-_Folyamatos_
62
7
100
AcDbLine
39
0.
10
884370.75
20
295741.90999999997
30
0.
11
884364.92000000004
21
295739.72999999998
31
0.
0
LINE
5
7342a
100
AcDbEntity
8
ITR-7-FEKVESHATAR
6
0_18_-_Folyamatos_
62
7
100
AcDbLine
39
0.
10
884404.88
20
295754.71999999997
30
0.
11
884408.34999999998
21
295756.02000000002
31
0.
0
LINE
5
7342b
100
AcDbEntity
8
ITR-7-FEKVESHATAR
6
0_18_-_Folyamatos_
62
7
100
AcDbLine
39
0.
10
884408.34999999998
20
295756.02000000002
30
0.
11
884410.87
21
295756.96999999997
31
0.
0
LINE
5
7342c
100
AcDbEntity
8
ITR-7-FEKVESHATAR
6
0_18_-_Folyamatos_
62
7
100
AcDbLine
39
0.
10
884410.87
20
295756.96999999997
30
0.
11
884416.45999999996
21
295759.07000000001
31
0.
0
LINE
5
7342d
100
AcDbEntity
8
ITR-7-FEKVESHATAR
6
0_18_-_Folyamatos_
62
7
100
AcDbLine
39
0.
10
884416.45999999996
20
295759.07000000001
30
0.
11
884422.65000000002
21
295761.39000000001
31
0.
0
LINE
5
7342e
100
AcDbEntity
8
ITR-7-FEKVESHATAR
6
0_18_-_Folyamatos_
62
7
100
AcDbLine
39
0.
10
884404.88
20
295754.71999999997
30
0.
11
884396.
21
295751.39000000001
31
0.
0
LINE
5
7342f
100
AcDbEntity
8
ITR-7-FEKVESHATAR
6
0_18_-_Folyamatos_
62
7
100
AcDbLine
39
0.
10
884422.65000000002
20
295761.39000000001
30
0.
11
884427.92000000004
21
295763.37
31
0.
0
LINE
5
73430
100
AcDbEntity
8
ITR-7-FEKVESHATAR
6
0_18_-_Folyamatos_
62
7
100
AcDbLine
39
0.
10
884427.92000000004
20
295763.37
30
0.
11
884431.15000000002
21
295764.58000000002
31
0.
0
LINE
5
73431
100
AcDbEntity
8
ITR-7-FEKVESHATAR
6
0_18_-_Folyamatos_
62
7
100
AcDbLine
39
0.
10
884431.15000000002
20
295764.58000000002
30
0.
11
884445.04000000004
21
295769.78999999998
31
0.
0
LINE
5
73432
100
AcDbEntity
8
ITR-7-FEKVESHATAR
6
0_18_-_Folyamatos_
62
7
100
AcDbLine
39
0.
10
884456.85999999999
20
295774.22999999998
30
0.
11
884463.30000000005
21
295776.64000000001
31
0.
0
LINE
5
73433
100
AcDbEntity
8
ITR-7-FEKVESHATAR
6
0_18_-_Folyamatos_
62
7
100
AcDbLine
39
0.
10
884456.85999999999
20
295774.22999999998
30
0.
11
884448.45999999996
21
295771.07000000001
31
0.
0
LINE
5
73434
100
AcDbEntity
8
ITR-7-FEKVESHATAR
6
0_18_-_Folyamatos_
62
7
100
AcDbLine
39
0.
10
884448.45999999996
20
295771.07000000001
30
0.
11
884445.04000000004
21
295769.78999999998
31
0.
0
LINE
5
73435
100
AcDbEntity
8
ITR-7-FEKVESHATAR
6
0_18_-_Folyamatos_
62
7
100
AcDbLine
39
0.
10
884509.87
20
295794.12
30
0.
11
884521.13
21
295798.34999999998
31
0.
0
LINE
5
73436
100
AcDbEntity
8
ITR-7-FEKVESHATAR
6
0_18_-_Folyamatos_
62
7
100
AcDbLine
39
0.
10
884509.87
20
295794.12
30
0.
11
884479.02000000002
21
295782.53999999998
31
0.
0
LINE
5
73437
100
AcDbEntity
8
ITR-7-FEKVESHATAR
6
0_18_-_Folyamatos_
62
7
100
AcDbLine
39
0.
10
884463.30000000005
20
295776.64000000001
30
0.
11
884473.09999999998
21
295780.32000000001
31
0.
0
LINE
5
73438
100
AcDbEntity
8
ITR-7-FEKVESHATAR
6
0_18_-_Folyamatos_
62
7
100
AcDbLine
39
0.
10
884521.13
20
295798.34999999998
30
0.
11
884527.12
21
295800.59000000003
31
0.
0
LINE
5
73439
100
AcDbEntity
8
ITR-7-FEKVESHATAR
6
0_18_-_Folyamatos_
62
7
100
AcDbLine
39
0.
10
884479.02000000002
20
295782.53999999998
30
0.
11
884473.09999999998
21
295780.32000000001
31
0.
0
LINE
5
7343a
100
AcDbEntity
8
ITR-7-FEKVESHATAR
6
0_18_-_Folyamatos_
62
7
100
AcDbLine
39
0.
10
884540.17000000004
20
295805.48999999999
30
0.
11
884543.20999999996
21
295806.63
31
0.
0
LINE
5
7343b
100
AcDbEntity
8
ITR-7-FEKVESHATAR
6
0_18_-_Folyamatos_
62
7
100
AcDbLine
39
0.
10
884551.85999999999
20
295809.87
30
0.
11
884553.10999999999
21
295810.34000000003
31
0.
0
LINE
5
7343c
100
AcDbEntity
8
ITR-7-FEKVESHATAR
6
0_18_-_Folyamatos_
62
7
100
AcDbLine
39
0.
10
884546.47999999998
20
295807.84999999998
30
0.
11
884549.08999999997
21
295808.83000000002
31
0.
0
LINE
5
7343d
100
AcDbEntity
8
ITR-7-FEKVESHATAR
6
0_18_-_Folyamatos_
62
7
100
AcDbLine
39
0.
10
884543.20999999996
20
295806.63
30
0.
11
884546.47999999998
21
295807.84999999998
31
0.
0
LINE
5
7343e
100
AcDbEntity
8
ITR-7-FEKVESHATAR
6
0_18_-_Folyamatos_
62
7
100
AcDbLine
39
0.
10
884553.10999999999
20
295810.34000000003
30
0.
11
884558.23999999999
21
295812.27000000002
31
0.
0
LINE
5
7343f
100
AcDbEntity
8
ITR-7-FEKVESHATAR
6
0_18_-_Folyamatos_
62
7
100
AcDbLine
39
0.
10
884549.08999999997
20
295808.83000000002
30
0.
11
884551.85999999999
21
295809.87
31
0.
0
LINE
5
73440
100
AcDbEntity
8
ITR-7-FEKVESHATAR
6
0_18_-_Folyamatos_
62
7
100
AcDbLine
39
0.
10
884558.23999999999
20
295812.27000000002
30
0.
11
884563.79000000004
21
295814.34999999998
31
0.
0
LINE
5
73441
100
AcDbEntity
8
ITR-7-FEKVESHATAR
6
0_18_-_Folyamatos_
62
7
100
AcDbLine
39
0.
10
884533.45999999996
20
295802.96999999997
30
0.
11
884540.17000000004
21
295805.48999999999
31
0.
0
LINE
5
73442
100
AcDbEntity
8
ITR-7-FEKVESHATAR
6
0_18_-_Folyamatos_
62
7
100
AcDbLine
39
0.
10
884527.12
20
295800.59000000003
30
0.
11
884533.45999999996
21
295802.96999999997
31
0.
0
LINE
5
73443
100
AcDbEntity
8
ITR-7-FEKVESHATAR
6
0_18_-_Folyamatos_
62
7
100
AcDbLine
39
0.
10
884563.79000000004
20
295814.34999999998
30
0.
11
884567.66000000003
21
295815.79999999999
31
0.
0
LINE
5
73444
100
AcDbEntity
8
ITR-7-FEKVESHATAR
6
0_18_-_Folyamatos_
62
7
100
AcDbLine
39
0.
10
884567.66000000003
20
295815.79999999999
30
0.
11
884578.12
21
295819.72999999998
31
0.
0
LINE
5
73445
100
AcDbEntity
8
ITR-7-FEKVESHATAR
6
0_18_-_Folyamatos_
62
7
100
AcDbLine
39
0.
10
884578.12
20
295819.72999999998
30
0.
11
884587.01000000001
21
295823.06
31
0.
0
LINE
5
73446
100
AcDbEntity
8
ITR-7-FEKVESHATAR
6
0_18_-_Folyamatos_
62
7
100
AcDbLine
39
0.
10
884587.01000000001
20
295823.06
30
0.
11
884594.07999999996
21
295825.71999999997
31
0.
0
LINE
5
73447
100
AcDbEntity
8
ITR-7-FEKVESHATAR
6
0_18_-_Folyamatos_
62
7
100
AcDbLine
39
0.
10
884599.52000000002
20
295827.76000000001
30
0.
11
884603.66000000003
21
295829.31
31
0.
0
LINE
5
73448
100
AcDbEntity
8
ITR-7-FEKVESHATAR
6
0_18_-_Folyamatos_
62
7
100
AcDbLine
39
0.
10
884594.07999999996
20
295825.71999999997
30
0.
11
884595.05000000005
21
295826.08000000002
31
0.
0
LINE
5
73449
100
AcDbEntity
8
ITR-7-FEKVESHATAR
6
0_18_-_Folyamatos_
62
7
100
AcDbLine
39
0.
10
884595.05000000005
20
295826.08000000002
30
0.
11
884599.52000000002
21
295827.76000000001
31
0.
0
LINE
5
7344a
100
AcDbEntity
8
ITR-7-FEKVESHATAR
6
0_18_-_Folyamatos_
62
7
100
AcDbLine
39
0.
10
884616.82999999996
20
295834.25
30
0.
11
884631.95999999996
21
295794.70000000001
31
0.
0
LINE
5
7344b
100
AcDbEntity
8
ITR-7-FEKVESHATAR
6
0_18_-_Folyamatos_
62
7
100
AcDbLine
39
0.
10
884603.66000000003
20
295829.31
30
0.
11
884609.73999999999
21
295831.59000000003
31
0.
0
LINE
5
7344c
100
AcDbEntity
8
ITR-7-FEKVESHATAR
6
0_18_-_Folyamatos_
62
7
100
AcDbLine
39
0.
10
884609.73999999999
20
295831.59000000003
30
0.
11
884614.42000000004
21
295833.34999999998
31
0.
0
LINE
5
7344d
100
AcDbEntity
8
ITR-7-FEKVESHATAR
6
0_18_-_Folyamatos_
62
7
100
AcDbLine
39
0.
10
884614.42000000004
20
295833.34999999998
30
0.
11
884616.82999999996
21
295834.25
31
0.
0
LINE
5
7344e
100
AcDbEntity
8
ITR-7-FEKVESHATAR
6
0_18_-_Folyamatos_
62
7
100
AcDbLine
39
0.
10
884711.10999999999
20
295814.03000000003
30
0.
11
884748.89000000001
21
295823.26000000001
31
0.
0
LINE
5
7344f
100
AcDbEntity
8
ITR-7-FEKVESHATAR
6
0_18_-_Folyamatos_
62
7
100
AcDbLine
39
0.
10
884711.10999999999
20
295814.03000000003
30
0.
11
884634.14000000001
21
295795.22999999998
31
0.
0
LINE
5
73450
100
AcDbEntity
8
ITR-7-FEKVESHATAR
6
0_18_-_Folyamatos_
62
7
100
AcDbLine
39
0.
10
884748.89000000001
20
295823.26000000001
30
0.
11
884750.77000000002
21
295786.84000000003
31
0.
0
LINE
5
73451
100
AcDbEntity
8
ITR-7-FEKVESHATAR
6
0_18_-_Folyamatos_
62
7
100
AcDbLine
39
0.
10
884634.14000000001
20
295795.22999999998
30
0.
11
884631.95999999996
21
295794.70000000001
31
0.
0
LINE
5
73452
100
AcDbEntity
8
ITR-6-TELEPULESHAT
6
0_18_-_Folyamatos_
62
6
100
AcDbLine
39
0.
10
884692.35999999999
20
295607.44
30
0.
11
884688.27000000002
21
295606.70000000001
31
0.
0
LINE
5
73453
100
AcDbEntity
8
ITR-7-FEKVESHATAR
6
0_18_-_Folyamatos_
62
7
100
AcDbLine
39
0.
10
884682.06000000006
20
295605.59000000003
30
0.
11
884675.27000000002
21
295604.37
31
0.
0
LINE
5
73454
100
AcDbEntity
8
ITR-7-FEKVESHATAR
6
0_18_-_Folyamatos_
62
7
100
AcDbLine
39
0.
10
884688.27000000002
20
295606.70000000001
30
0.
11
884682.06000000006
21
295605.59000000003
31
0.
0
LINE
5
73455
100
AcDbEntity
8
ITR-6-TELEPULESHAT
6
0_18_-_Folyamatos_
62
6
100
AcDbLine
39
0.
10
884695.12
20
295607.92999999999
30
0.
11
884692.35999999999
21
295607.44
31
0.
0
LINE
5
73456
100
AcDbEntity
8
ITR-6-TELEPULESHAT
6
0_18_-_Folyamatos_
62
6
100
AcDbLine
39
0.
10
884682.06000000006
20
295605.59000000003
30
0.
11
884675.27000000002
21
295604.37
31
0.
0
LINE
5
73457
100
AcDbEntity
8
ITR-6-TELEPULESHAT
6
0_18_-_Folyamatos_
62
6
100
AcDbLine
39
0.
10
884688.27000000002
20
295606.70000000001
30
0.
11
884682.06000000006
21
295605.59000000003
31
0.
0
LINE
5
73458
100
AcDbEntity
8
ITR-7-FEKVESHATAR
6
0_18_-_Folyamatos_
62
7
100
AcDbLine
39
0.
10
884688.27000000002
20
295606.70000000001
30
0.
11
884692.35999999999
21
295607.44
31
0.
0
LINE
5
73459
100
AcDbEntity
8
ITR-7-FEKVESHATAR
6
0_18_-_Folyamatos_
62
7
100
AcDbLine
39
0.
10
884692.35999999999
20
295607.44
30
0.
11
884695.12
21
295607.92999999999
31
0.
0
LINE
5
7345a
100
AcDbEntity
8
ITR-7-FEKVESHATAR
6
0_18_-_Folyamatos_
62
7
100
AcDbLine
39
0.
10
884768.48999999999
20
295656.29999999999
30
0.
11
884776.39000000001
21
295605.25
31
0.
0
LINE
5
7345b
100
AcDbEntity
8
ITR-7-FEKVESHATAR
6
0_18_-_Folyamatos_
62
7
100
AcDbLine
39
0.
10
884776.39000000001
20
295605.25
30
0.
11
884744.97999999998
21
295599.38
31
0.
0
LINE
5
7345c
100
AcDbEntity
8
ITR-6-TELEPULESHAT
6
0_18_-_Folyamatos_
62
6
100
AcDbLine
39
0.
10
884776.39000000001
20
295605.25
30
0.
11
884744.97999999998
21
295599.38
31
0.
0
LINE
5
7345d
100
AcDbEntity
8
ITR-7-FEKVESHATAR
6
0_18_-_Folyamatos_
62
7
100
AcDbLine
39
0.
10
884735.31000000006
20
295615.12
30
0.
11
884713.56000000006
21
295611.22999999998
31
0.
0
LINE
5
7345e
100
AcDbEntity
8
ITR-6-TELEPULESHAT
6
0_18_-_Folyamatos_
62
6
100
AcDbLine
39
0.
10
884735.31000000006
20
295615.12
30
0.
11
884713.56000000006
21
295611.22999999998
31
0.
0
LINE
5
7345f
100
AcDbEntity
8
ITR-7-FEKVESHATAR
6
0_18_-_Folyamatos_
62
7
100
AcDbLine
39
0.
10
884665.44999999995
20
295602.62
30
0.
11
884649.46999999997
21
295599.75
31
0.
0
LINE
5
73460
100
AcDbEntity
8
ITR-7-FEKVESHATAR
6
0_18_-_Folyamatos_
62
7
100
AcDbLine
39
0.
10
884670.87
20
295603.59000000003
30
0.
11
884665.44999999995
21
295602.62
31
0.
0
LINE
5
73461
100
AcDbEntity
8
ITR-6-TELEPULESHAT
6
0_18_-_Folyamatos_
62
6
100
AcDbLine
39
0.
10
884670.87
20
295603.59000000003
30
0.
11
884665.44999999995
21
295602.62
31
0.
0
LINE
5
73462
100
AcDbEntity
8
ITR-6-TELEPULESHAT
6
0_18_-_Folyamatos_
62
6
100
AcDbLine
39
0.
10
884675.27000000002
20
295604.37
30
0.
11
884670.87
21
295603.59000000003
31
0.
0
LINE
5
73463
100
AcDbEntity
8
ITR-6-TELEPULESHAT
6
0_18_-_Folyamatos_
62
6
100
AcDbLine
39
0.
10
884665.44999999995
20
295602.62
30
0.
11
884649.46999999997
21
295599.75
31
0.
0
LINE
5
73464
100
AcDbEntity
8
ITR-7-FEKVESHATAR
6
0_18_-_Folyamatos_
62
7
100
AcDbLine
39
0.
10
884675.27000000002
20
295604.37
30
0.
11
884670.87
21
295603.59000000003
31
0.
0
LINE
5
73465
100
AcDbEntity
8
ITR-7-FEKVESHATAR
6
0_18_-_Folyamatos_
62
7
100
AcDbLine
39
0.
10
884750.77000000002
20
295786.84000000003
30
0.
11
884751.89000000001
21
295765.29999999999
31
0.
0
LINE
5
73466
100
AcDbEntity
8
ITR-7-FEKVESHATAR
6
0_18_-_Folyamatos_
62
7
100
AcDbLine
39
0.
10
884765.32999999996
20
295674.28000000003
30
0.
11
884768.48999999999
21
295656.29999999999
31
0.
0
LINE
5
73467
100
AcDbEntity
8
ITR-7-FEKVESHATAR
6
0_18_-_Folyamatos_
62
7
100
AcDbLine
39
0.
10
884752.95999999996
20
295744.62
30
0.
11
884755.63
21
295729.42999999999
31
0.
0
LINE
5
73468
100
AcDbEntity
8
ITR-7-FEKVESHATAR
6
0_18_-_Folyamatos_
62
7
100
AcDbLine
39
0.
10
884752.60999999999
20
295751.38
30
0.
11
884752.95999999996
21
295744.62
31
0.
0
LINE
5
73469
100
AcDbEntity
8
ITR-7-FEKVESHATAR
6
0_18_-_Folyamatos_
62
7
100
AcDbLine
39
0.
10
884755.63
20
295729.42999999999
30
0.
11
884765.32999999996
21
295674.28000000003
31
0.
0
LINE
5
7346a
100
AcDbEntity
8
ITR-7-FEKVESHATAR
6
0_18_-_Folyamatos_
62
7
100
AcDbLine
39
0.
10
884751.89000000001
20
295765.29999999999
30
0.
11
884752.60999999999
21
295751.38
31
0.
0
LINE
5
7346b
100
AcDbEntity
8
ITR-6-TELEPULESHAT
6
0_18_-_Folyamatos_
62
6
100
AcDbLine
39
0.
10
884713.56000000006
20
295611.22999999998
30
0.
11
884695.12
21
295607.92999999999
31
0.
0
LINE
5
7346c
100
AcDbEntity
8
ITR-7-FEKVESHATAR
6
0_18_-_Folyamatos_
62
7
100
AcDbLine
39
0.
10
884713.56000000006
20
295611.22999999998
30
0.
11
884695.12
21
295607.92999999999
31
0.
0
LINE
5
7346d
100
AcDbEntity
8
ITR-7-FEKVESHATAR
6
0_18_-_Folyamatos_
62
7
100
AcDbLine
39
0.
10
884744.97999999998
20
295599.38
30
0.
11
884735.31000000006
21
295615.12
31
0.
0
LINE
5
7346e
100
AcDbEntity
8
ITR-6-TELEPULESHAT
6
0_18_-_Folyamatos_
62
6
100
AcDbLine
39
0.
10
884744.97999999998
20
295599.38
30
0.
11
884735.31000000006
21
295615.12
31
0.
0
LINE
5
7346f
100
AcDbEntity
8
ITR-7-FEKVESHATAR
6
0_18_-_Folyamatos_
62
7
100
AcDbLine
39
0.
10
884600.42000000004
20
295584.98999999999
30
0.
11
884593.87
21
295584.17999999999
31
0.
0
LINE
5
73470
100
AcDbEntity
8
ITR-7-FEKVESHATAR
6
0_18_-_Folyamatos_
62
7
100
AcDbLine
39
0.
10
884614.93000000005
20
295586.78000000003
30
0.
11
884607.79000000004
21
295585.90000000002
31
0.
0
LINE
5
73471
100
AcDbEntity
8
ITR-7-FEKVESHATAR
6
0_18_-_Folyamatos_
62
7
100
AcDbLine
39
0.
10
884617.25
20
295587.07000000001
30
0.
11
884614.93000000005
21
295586.78000000003
31
0.
0
LINE
5
73472
100
AcDbEntity
8
ITR-7-FEKVESHATAR
6
0_18_-_Folyamatos_
62
7
100
AcDbLine
39
0.
10
884607.79000000004
20
295585.90000000002
30
0.
11
884600.42000000004
21
295584.98999999999
31
0.
0
LINE
5
73473
100
AcDbEntity
8
ITR-6-TELEPULESHAT
6
0_18_-_Folyamatos_
62
6
100
AcDbLine
39
0.
10
884617.25
20
295587.07000000001
30
0.
11
884614.93000000005
21
295586.78000000003
31
0.
0
LINE
5
73474
100
AcDbEntity
8
ITR-6-TELEPULESHAT
6
0_18_-_Folyamatos_
62
6
100
AcDbLine
39
0.
10
884614.93000000005
20
295586.78000000003
30
0.
11
884607.79000000004
21
295585.90000000002
31
0.
0
LINE
5
73475
100
AcDbEntity
8
ITR-6-TELEPULESHAT
6
0_18_-_Folyamatos_
62
6
100
AcDbLine
39
0.
10
884607.79000000004
20
295585.90000000002
30
0.
11
884600.42000000004
21
295584.98999999999
31
0.
0
LINE
5
73476
100
AcDbEntity
8
ITR-6-TELEPULESHAT
6
0_18_-_Folyamatos_
62
6
100
AcDbLine
39
0.
10
884600.42000000004
20
295584.98999999999
30
0.
11
884593.87
21
295584.17999999999
31
0.
0
LINE
5
73477
100
AcDbEntity
8
ITR-7-FEKVESHATAR
6
0_18_-_Folyamatos_
62
7
100
AcDbLine
39
0.
10
884626.68999999994
20
295588.23999999999
30
0.
11
884621.33999999997
21
295587.58000000002
31
0.
0
LINE
5
73478
100
AcDbEntity
8
ITR-7-FEKVESHATAR
6
0_18_-_Folyamatos_
62
7
100
AcDbLine
39
0.
10
884621.33999999997
20
295587.58000000002
30
0.
11
884617.25
21
295587.07000000001
31
0.
0
LINE
5
73479
100
AcDbEntity
8
ITR-7-FEKVESHATAR
6
0_18_-_Folyamatos_
62
7
100
AcDbLine
39
0.
10
884628.97999999998
20
295588.52000000002
30
0.
11
884626.68999999994
21
295588.23999999999
31
0.
0
LINE
5
7347a
100
AcDbEntity
8
ITR-7-FEKVESHATAR
6
0_18_-_Folyamatos_
62
7
100
AcDbLine
39
0.
10
884632.18000000005
20
295590.42999999999
30
0.
11
884628.97999999998
21
295588.52000000002
31
0.
0
LINE
5
7347b
100
AcDbEntity
8
ITR-7-FEKVESHATAR
6
0_18_-_Folyamatos_
62
7
100
AcDbLine
39
0.
10
884638.45999999996
20
295594.19
30
0.
11
884632.18000000005
21
295590.42999999999
31
0.
0
LINE
5
7347c
100
AcDbEntity
8
ITR-6-TELEPULESHAT
6
0_18_-_Folyamatos_
62
6
100
AcDbLine
39
0.
10
884638.45999999996
20
295594.19
30
0.
11
884632.18000000005
21
295590.42999999999
31
0.
0
LINE
5
7347d
100
AcDbEntity
8
ITR-6-TELEPULESHAT
6
0_18_-_Folyamatos_
62
6
100
AcDbLine
39
0.
10
884632.18000000005
20
295590.42999999999
30
0.
11
884628.97999999998
21
295588.52000000002
31
0.
0
LINE
5
7347e
100
AcDbEntity
8
ITR-6-TELEPULESHAT
6
0_18_-_Folyamatos_
62
6
100
AcDbLine
39
0.
10
884628.97999999998
20
295588.52000000002
30
0.
11
884626.68999999994
21
295588.23999999999
31
0.
0
LINE
5
7347f
100
AcDbEntity
8
ITR-6-TELEPULESHAT
6
0_18_-_Folyamatos_
62
6
100
AcDbLine
39
0.
10
884626.68999999994
20
295588.23999999999
30
0.
11
884621.33999999997
21
295587.58000000002
31
0.
0
LINE
5
73480
100
AcDbEntity
8
ITR-6-TELEPULESHAT
6
0_18_-_Folyamatos_
62
6
100
AcDbLine
39
0.
10
884621.33999999997
20
295587.58000000002
30
0.
11
884617.25
21
295587.07000000001
31
0.
0
LINE
5
73481
100
AcDbEntity
8
ITR-7-FEKVESHATAR
6
0_18_-_Folyamatos_
62
7
100
AcDbLine
39
0.
10
884647.04000000004
20
295599.32000000001
30
0.
11
884638.45999999996
21
295594.19
31
0.
0
LINE
5
73482
100
AcDbEntity
8
ITR-7-FEKVESHATAR
6
0_18_-_Folyamatos_
62
7
100
AcDbLine
39
0.
10
884649.46999999997
20
295599.75
30
0.
11
884647.04000000004
21
295599.32000000001
31
0.
0
LINE
5
73483
100
AcDbEntity
8
ITR-6-TELEPULESHAT
6
0_18_-_Folyamatos_
62
6
100
AcDbLine
39
0.
10
884649.46999999997
20
295599.75
30
0.
11
884647.04000000004
21
295599.32000000001
31
0.
0
LINE
5
73484
100
AcDbEntity
8
ITR-6-TELEPULESHAT
6
0_18_-_Folyamatos_
62
6
100
AcDbLine
39
0.
10
884647.04000000004
20
295599.32000000001
30
0.
11
884638.45999999996
21
295594.19
31
0.
0
LINE
5
73485
100
AcDbEntity
8
ITR-7-FEKVESHATAR
6
0_18_-_Folyamatos_
62
7
100
AcDbLine
39
0.
10
884525.54000000004
20
295577.01000000001
30
0.
11
884520.82999999996
21
295577.19
31
0.
0
LINE
5
73486
100
AcDbEntity
8
ITR-7-FEKVESHATAR
6
0_18_-_Folyamatos_
62
7
100
AcDbLine
39
0.
10
884532.38
20
295576.75
30
0.
11
884525.54000000004
21
295577.01000000001
31
0.
0
LINE
5
73487
100
AcDbEntity
8
ITR-7-FEKVESHATAR
6
0_18_-_Folyamatos_
62
7
100
AcDbLine
39
0.
10
884533.39000000001
20
295576.71000000002
30
0.
11
884532.38
21
295576.75
31
0.
0
LINE
5
73488
100
AcDbEntity
8
ITR-6-TELEPULESHAT
6
0_18_-_Folyamatos_
62
6
100
AcDbLine
39
0.
10
884533.39000000001
20
295576.71000000002
30
0.
11
884532.38
21
295576.75
31
0.
0
LINE
5
73489
100
AcDbEntity
8
ITR-6-TELEPULESHAT
6
0_18_-_Folyamatos_
62
6
100
AcDbLine
39
0.
10
884532.38
20
295576.75
30
0.
11
884525.54000000004
21
295577.01000000001
31
0.
0
LINE
5
7348a
100
AcDbEntity
8
ITR-6-TELEPULESHAT
6
0_18_-_Folyamatos_
62
6
100
AcDbLine
39
0.
10
884525.54000000004
20
295577.01000000001
30
0.
11
884520.82999999996
21
295577.19
31
0.
0
LINE
5
7348b
100
AcDbEntity
8
ITR-6-TELEPULESHAT
6
0_18_-_Folyamatos_
62
6
100
AcDbLine
39
0.
10
884520.82999999996
20
295577.19
30
0.
11
884508.58999999997
21
295577.65000000002
31
0.
0
LINE
5
7348c
100
AcDbEntity
8
ITR-7-FEKVESHATAR
6
0_18_-_Folyamatos_
62
7
100
AcDbLine
39
0.
10
884417.25
20
295581.10999999999
30
0.
11
884411.88
21
295580.35999999999
31
0.
0
LINE
5
7348d
100
AcDbEntity
8
ITR-7-FEKVESHATAR
6
0_18_-_Folyamatos_
62
7
100
AcDbLine
39
0.
10
884411.88
20
295580.35999999999
30
0.
11
884389.93999999994
21
295577.29999999999
31
0.
0
LINE
5
7348e
100
AcDbEntity
8
ITR-6-TELEPULESHAT
6
0_18_-_Folyamatos_
62
6
100
AcDbLine
39
0.
10
884411.88
20
295580.35999999999
30
0.
11
884389.93999999994
21
295577.29999999999
31
0.
0
LINE
5
7348f
100
AcDbEntity
8
ITR-6-TELEPULESHAT
6
0_18_-_Folyamatos_
62
6
100
AcDbLine
39
0.
10
884417.25
20
295581.10999999999
30
0.
11
884411.88
21
295580.35999999999
31
0.
0
LINE
5
73490
100
AcDbEntity
8
ITR-7-FEKVESHATAR
6
0_18_-_Folyamatos_
62
7
100
AcDbLine
39
0.
10
884422.60999999999
20
295580.90999999997
30
0.
11
884417.25
21
295581.10999999999
31
0.
0
LINE
5
73491
100
AcDbEntity
8
ITR-7-FEKVESHATAR
6
0_18_-_Folyamatos_
62
7
100
AcDbLine
39
0.
10
884439.06999999995
20
295580.28000000003
30
0.
11
884422.60999999999
21
295580.90999999997
31
0.
0
LINE
5
73492
100
AcDbEntity
8
ITR-7-FEKVESHATAR
6
0_18_-_Folyamatos_
62
7
100
AcDbLine
39
0.
10
884439.06999999995
20
295580.28000000003
30
0.
11
884448.57999999996
21
295579.91999999998
31
0.
0
LINE
5
73493
100
AcDbEntity
8
ITR-6-TELEPULESHAT
6
0_18_-_Folyamatos_
62
6
100
AcDbLine
39
0.
10
884439.06999999995
20
295580.28000000003
30
0.
11
884422.60999999999
21
295580.90999999997
31
0.
0
LINE
5
73494
100
AcDbEntity
8
ITR-6-TELEPULESHAT
6
0_18_-_Folyamatos_
62
6
100
AcDbLine
39
0.
10
884422.60999999999
20
295580.90999999997
30
0.
11
884417.25
21
295581.10999999999
31
0.
0
LINE
5
73495
100
AcDbEntity
8
ITR-7-FEKVESHATAR
6
0_18_-_Folyamatos_
62
7
100
AcDbLine
39
0.
10
884506.48999999999
20
295577.72999999998
30
0.
11
884487.10999999999
21
295578.46000000002
31
0.
0
LINE
5
73496
100
AcDbEntity
8
ITR-7-FEKVESHATAR
6
0_18_-_Folyamatos_
62
7
100
AcDbLine
39
0.
10
884506.48999999999
20
295577.72999999998
30
0.
11
884508.58999999997
21
295577.65000000002
31
0.
0
LINE
5
73497
100
AcDbEntity
8
ITR-7-FEKVESHATAR
6
0_18_-_Folyamatos_
62
7
100
AcDbLine
39
0.
10
884508.58999999997
20
295577.65000000002
30
0.
11
884520.82999999996
21
295577.19
31
0.
0
LINE
5
73498
100
AcDbEntity
8
ITR-6-TELEPULESHAT
6
0_18_-_Folyamatos_
62
6
100
AcDbLine
39
0.
10
884508.58999999997
20
295577.65000000002
30
0.
11
884506.48999999999
21
295577.72999999998
31
0.
0
LINE
5
73499
100
AcDbEntity
8
ITR-6-TELEPULESHAT
6
0_18_-_Folyamatos_
62
6
100
AcDbLine
39
0.
10
884506.48999999999
20
295577.72999999998
30
0.
11
884487.10999999999
21
295578.46000000002
31
0.
0
LINE
5
7349a
100
AcDbEntity
8
ITR-7-FEKVESHATAR
6
0_18_-_Folyamatos_
62
7
100
AcDbLine
39
0.
10
884593.87
20
295584.17999999999
30
0.
11
884587.98999999999
21
295583.46000000002
31
0.
0
LINE
5
7349b
100
AcDbEntity
8
ITR-7-FEKVESHATAR
6
0_18_-_Folyamatos_
62
7
100
AcDbLine
39
0.
10
884587.98999999999
20
295583.46000000002
30
0.
11
884575.16000000003
21
295581.87
31
0.
0
LINE
5
7349c
100
AcDbEntity
8
ITR-6-TELEPULESHAT
6
0_18_-_Folyamatos_
62
6
100
AcDbLine
39
0.
10
884593.87
20
295584.17999999999
30
0.
11
884587.98999999999
21
295583.46000000002
31
0.
0
LINE
5
7349d
100
AcDbEntity
8
ITR-6-TELEPULESHAT
6
0_18_-_Folyamatos_
62
6
100
AcDbLine
39
0.
10
884587.98999999999
20
295583.46000000002
30
0.
11
884575.16000000003
21
295581.87
31
0.
0
LINE
5
7349e
100
AcDbEntity
8
ITR-7-FEKVESHATAR
6
0_18_-_Folyamatos_
62
7
100
AcDbLine
39
0.
10
884472.09999999998
20
295579.03000000003
30
0.
11
884465.16000000003
21
295579.28999999998
31
0.
0
LINE
5
7349f
100
AcDbEntity
8
ITR-7-FEKVESHATAR
6
0_18_-_Folyamatos_
62
7
100
AcDbLine
39
0.
10
884465.16000000003
20
295579.28999999998
30
0.
11
884458.32999999996
21
295579.54999999999
31
0.
0
LINE
5
734a0
100
AcDbEntity
8
ITR-7-FEKVESHATAR
6
0_18_-_Folyamatos_
62
7
100
AcDbLine
39
0.
10
884478.97999999998
20
295578.77000000002
30
0.
11
884472.09999999998
21
295579.03000000003
31
0.
0
LINE
5
734a1
100
AcDbEntity
8
ITR-6-TELEPULESHAT
6
0_18_-_Folyamatos_
62
6
100
AcDbLine
39
0.
10
884478.97999999998
20
295578.77000000002
30
0.
11
884472.09999999998
21
295579.03000000003
31
0.
0
LINE
5
734a2
100
AcDbEntity
8
ITR-6-TELEPULESHAT
6
0_18_-_Folyamatos_
62
6
100
AcDbLine
39
0.
10
884472.09999999998
20
295579.03000000003
30
0.
11
884465.16000000003
21
295579.28999999998
31
0.
0
LINE
5
734a3
100
AcDbEntity
8
ITR-6-TELEPULESHAT
6
0_18_-_Folyamatos_
62
6
100
AcDbLine
39
0.
10
884465.16000000003
20
295579.28999999998
30
0.
11
884458.32999999996
21
295579.54999999999
31
0.
0
LINE
5
734a4
100
AcDbEntity
8
ITR-7-FEKVESHATAR
6
0_18_-_Folyamatos_
62
7
100
AcDbLine
39
0.
10
884487.10999999999
20
295578.46000000002
30
0.
11
884478.97999999998
21
295578.77000000002
31
0.
0
LINE
5
734a5
100
AcDbEntity
8
ITR-6-TELEPULESHAT
6
0_18_-_Folyamatos_
62
6
100
AcDbLine
39
0.
10
884487.10999999999
20
295578.46000000002
30
0.
11
884478.97999999998
21
295578.77000000002
31
0.
0
LINE
5
734a6
100
AcDbEntity
8
ITR-7-FEKVESHATAR
6
0_18_-_Folyamatos_
62
7
100
AcDbLine
39
0.
10
884575.16000000003
20
295581.87
30
0.
11
884533.39000000001
21
295576.71000000002
31
0.
0
LINE
5
734a7
100
AcDbEntity
8
ITR-6-TELEPULESHAT
6
0_18_-_Folyamatos_
62
6
100
AcDbLine
39
0.
10
884575.16000000003
20
295581.87
30
0.
11
884533.39000000001
21
295576.71000000002
31
0.
0
LINE
5
734a8
100
AcDbEntity
8
ITR-7-FEKVESHATAR
6
0_18_-_Folyamatos_
62
7
100
AcDbLine
39
0.
10
884448.57999999996
20
295579.91999999998
30
0.
11
884458.32999999996
21
295579.54999999999
31
0.
0
LINE
5
734a9
100
AcDbEntity
8
ITR-6-TELEPULESHAT
6
0_18_-_Folyamatos_
62
6
100
AcDbLine
39
0.
10
884458.32999999996
20
295579.54999999999
30
0.
11
884448.57999999996
21
295579.91999999998
31
0.
0
LINE
5
734aa
100
AcDbEntity
8
ITR-6-TELEPULESHAT
6
0_18_-_Folyamatos_
62
6
100
AcDbLine
39
0.
10
884448.57999999996
20
295579.91999999998
30
0.
11
884439.06999999995
21
295580.28000000003
31
0.
0
LINE
5
734ab
100
AcDbEntity
8
ITR-7-FEKVESHATAR
6
0_18_-_Folyamatos_
62
7
100
AcDbLine
39
0.
10
884351.63
20
295571.96000000002
30
0.
11
884348.05000000005
21
295571.46000000002
31
0.
0
LINE
5
734ac
100
AcDbEntity
8
ITR-7-FEKVESHATAR
6
0_18_-_Folyamatos_
62
7
100
AcDbLine
39
0.
10
884348.05000000005
20
295571.46000000002
30
0.
11
884345.77000000002
21
295576.96000000002
31
0.
0
LINE
5
734ad
100
AcDbEntity
8
ITR-6-TELEPULESHAT
6
0_18_-_Folyamatos_
62
6
100
AcDbLine
39
0.
10
884351.63
20
295571.96000000002
30
0.
11
884348.05000000005
21
295571.46000000002
31
0.
0
LINE
5
734ae
100
AcDbEntity
8
ITR-6-TELEPULESHAT
6
0_18_-_Folyamatos_
62
6
100
AcDbLine
39
0.
10
884345.77000000002
20
295576.96000000002
30
0.
11
884335.62
21
295574.58000000002
31
0.
0
LINE
5
734af
100
AcDbEntity
8
ITR-6-TELEPULESHAT
6
0_18_-_Folyamatos_
62
6
100
AcDbLine
39
0.
10
884348.05000000005
20
295571.46000000002
30
0.
11
884345.77000000002
21
295576.96000000002
31
0.
0
LINE
5
734b0
100
AcDbEntity
8
ITR-7-FEKVESHATAR
6
0_18_-_Folyamatos_
62
7
100
AcDbLine
39
0.
10
884380.62
20
295576.
30
0.
11
884376.53000000003
21
295575.42999999999
31
0.
0
LINE
5
734b1
100
AcDbEntity
8
ITR-7-FEKVESHATAR
6
0_18_-_Folyamatos_
62
7
100
AcDbLine
39
0.
10
884389.93999999994
20
295577.29999999999
30
0.
11
884384.93999999994
21
295576.59999999998
31
0.
0
LINE
5
734b2
100
AcDbEntity
8
ITR-7-FEKVESHATAR
6
0_18_-_Folyamatos_
62
7
100
AcDbLine
39
0.
10
884384.93999999994
20
295576.59999999998
30
0.
11
884380.62
21
295576.
31
0.
0
LINE
5
734b3
100
AcDbEntity
8
ITR-6-TELEPULESHAT
6
0_18_-_Folyamatos_
62
6
100
AcDbLine
39
0.
10
884389.93999999994
20
295577.29999999999
30
0.
11
884384.93999999994
21
295576.59999999998
31
0.
0
LINE
5
734b4
100
AcDbEntity
8
ITR-6-TELEPULESHAT
6
0_18_-_Folyamatos_
62
6
100
AcDbLine
39
0.
10
884384.93999999994
20
295576.59999999998
30
0.
11
884380.62
21
295576.
31
0.
0
LINE
5
734b5
100
AcDbEntity
8
ITR-6-TELEPULESHAT
6
0_18_-_Folyamatos_
62
6
100
AcDbLine
39
0.
10
884380.62
20
295576.
30
0.
11
884376.53000000003
21
295575.42999999999
31
0.
0
LINE
5
734b6
100
AcDbEntity
8
ITR-7-FEKVESHATAR
6
0_18_-_Folyamatos_
62
7
100
AcDbLine
39
0.
10
884333.17000000004
20
295574.62
30
0.
11
884326.62
21
295594.40000000002
31
0.
0
LINE
5
734b7
100
AcDbEntity
8
ITR-6-TELEPULESHAT
6
0_18_-_Folyamatos_
62
6
100
AcDbLine
39
0.
10
884335.62
20
295574.58000000002
30
0.
11
884333.32999999996
21
295574.04999999999
31
0.
0
LINE
5
734b8
100
AcDbEntity
8
ITR-7-FEKVESHATAR
6
0_18_-_Folyamatos_
62
7
100
AcDbLine
39
0.
10
884333.32999999996
20
295574.04999999999
30
0.
11
884335.62
21
295574.58000000002
31
0.
0
LINE
5
734b9
100
AcDbEntity
8
ITR-7-FEKVESHATAR
6
0_18_-_Folyamatos_
62
7
100
AcDbLine
39
0.
10
884335.62
20
295574.58000000002
30
0.
11
884345.77000000002
21
295576.96000000002
31
0.
0
LINE
5
734ba
100
AcDbEntity
8
ITR-6-TELEPULESHAT
6
0_18_-_Folyamatos_
62
6
100
AcDbLine
39
0.
10
884332.62
20
295573.88
30
0.
11
884332.68000000005
21
295573.89000000001
31
0.
0
LINE
5
734bb
100
AcDbEntity
8
ITR-7-FEKVESHATAR
6
0_18_-_Folyamatos_
62
7
100
AcDbLine
39
0.
10
884332.62
20
295573.88
30
0.
11
884332.68000000005
21
295573.89000000001
31
0.
0
LINE
5
734bc
100
AcDbEntity
8
ITR-6-TELEPULESHAT
6
0_18_-_Folyamatos_
62
6
100
AcDbLine
39
0.
10
884332.68000000005
20
295573.89000000001
30
0.
11
884333.32999999996
21
295574.04999999999
31
0.
0
LINE
5
734bd
100
AcDbEntity
8
ITR-7-FEKVESHATAR
6
0_18_-_Folyamatos_
62
7
100
AcDbLine
39
0.
10
884332.68000000005
20
295573.89000000001
30
0.
11
884333.32999999996
21
295574.04999999999
31
0.
0
LINE
5
734be
100
AcDbEntity
8
ITR-7-FEKVESHATAR
6
0_18_-_Folyamatos_
62
7
100
AcDbLine
39
0.
10
884332.62
20
295573.88
30
0.
11
884332.66000000003
21
295573.94
31
0.
0
LINE
5
734bf
100
AcDbEntity
8
ITR-7-FEKVESHATAR
6
0_18_-_Folyamatos_
62
7
100
AcDbLine
39
0.
10
884332.66000000003
20
295573.94
30
0.
11
884333.17000000004
21
295574.62
31
0.
0
LINE
5
734c0
100
AcDbEntity
8
ITR-7-FEKVESHATAR
6
0_18_-_Folyamatos_
62
7
100
AcDbLine
39
0.
10
884326.62
20
295594.40000000002
30
0.
11
884288.04000000004
21
295710.88
31
0.
0
LINE
5
734c1
100
AcDbEntity
8
ITR-7-FEKVESHATAR
6
0_18_-_Folyamatos_
62
7
100
AcDbLine
39
0.
10
884376.53000000003
20
295575.42999999999
30
0.
11
884351.63
21
295571.96000000002
31
0.
0
LINE
5
734c2
100
AcDbEntity
8
ITR-6-TELEPULESHAT
6
0_18_-_Folyamatos_
62
6
100
AcDbLine
39
0.
10
884376.53000000003
20
295575.42999999999
30
0.
11
884351.63
21
295571.96000000002
31
0.
0
LINE
5
734c3
100
AcDbEntity
8
ITR-7-FEKVESHATAR
6
0_18_-_Folyamatos_
62
7
100
AcDbLine
39
0.
10
886585.26000000001
20
296894.07000000001
30
0.
11
886599.18000000005
21
296892.51000000001
31
0.
0
LINE
5
734c4
100
AcDbEntity
8
ITR-7-FEKVESHATAR
6
0_18_-_Folyamatos_
62
7
100
AcDbLine
39
0.
10
886585.22999999998
20
296897.06
30
0.
11
886585.26000000001
21
296894.07000000001
31
0.
0
LINE
5
734c5
100
AcDbEntity
8
ITR-7-FEKVESHATAR
6
0_18_-_Folyamatos_
62
7
100
AcDbLine
39
0.
10
886599.18000000005
20
296892.51000000001
30
0.
11
886621.93999999994
21
296889.95000000001
31
0.
0
LINE
5
734c6
100
AcDbEntity
8
ITR-7-FEKVESHATAR
6
0_18_-_Folyamatos_
62
7
100
AcDbLine
39
0.
10
886584.75
20
296946.03000000003
30
0.
11
886584.80000000005
21
296940.67999999999
31
0.
0
LINE
5
734c7
100
AcDbEntity
8
ITR-7-FEKVESHATAR
6
0_18_-_Folyamatos_
62
7
100
AcDbLine
39
0.
10
886584.80000000005
20
296940.67999999999
30
0.
11
886584.82999999996
21
296937.69
31
0.
0
LINE
5
734c8
100
AcDbEntity
8
ITR-7-FEKVESHATAR
6
0_18_-_Folyamatos_
62
7
100
AcDbLine
39
0.
10
886570.93999999994
20
296973.76000000001
30
0.
11
886584.75
21
296946.03000000003
31
0.
0
LINE
5
734c9
100
AcDbEntity
8
ITR-7-FEKVESHATAR
6
0_18_-_Folyamatos_
62
7
100
AcDbLine
39
0.
10
886584.82999999996
20
296937.69
30
0.
11
886585.06000000006
21
296915.78999999998
31
0.
0
LINE
5
734ca
100
AcDbEntity
8
ITR-7-FEKVESHATAR
6
0_18_-_Folyamatos_
62
7
100
AcDbLine
39
0.
10
886585.06000000006
20
296915.78999999998
30
0.
11
886585.22999999998
21
296897.06
31
0.
0
LINE
5
734cb
100
AcDbEntity
8
ITR-7-FEKVESHATAR
6
0_18_-_Folyamatos_
62
7
100
AcDbLine
39
0.
10
886727.69999999995
20
296901.64000000001
30
0.
11
886729.06999999995
21
296901.92999999999
31
0.
0
LINE
5
734cc
100
AcDbEntity
8
ITR-7-FEKVESHATAR
6
0_18_-_Folyamatos_
62
7
100
AcDbLine
39
0.
10
886733.63
20
296902.90000000002
30
0.
11
886768.56000000006
21
296910.34999999998
31
0.
0
LINE
5
734cd
100
AcDbEntity
8
ITR-7-FEKVESHATAR
6
0_18_-_Folyamatos_
62
7
100
AcDbLine
39
0.
10
886730.85999999999
20
296902.31
30
0.
11
886733.63
21
296902.90000000002
31
0.
0
LINE
5
734ce
100
AcDbEntity
8
ITR-7-FEKVESHATAR
6
0_18_-_Folyamatos_
62
7
100
AcDbLine
39
0.
10
886729.06999999995
20
296901.92999999999
30
0.
11
886730.85999999999
21
296902.31
31
0.
0
LINE
5
734cf
100
AcDbEntity
8
ITR-7-FEKVESHATAR
6
0_18_-_Folyamatos_
62
7
100
AcDbLine
39
0.
10
886769.17000000004
20
296970.08000000002
30
0.
11
886777.14000000001
21
296971.76000000001
31
0.
0
LINE
5
734d0
100
AcDbEntity
8
ITR-7-FEKVESHATAR
6
0_18_-_Folyamatos_
62
7
100
AcDbLine
39
0.
10
886777.14000000001
20
296971.76000000001
30
0.
11
886784.96999999997
21
296973.41999999998
31
0.
0
LINE
5
734d1
100
AcDbEntity
8
ITR-7-FEKVESHATAR
6
0_18_-_Folyamatos_
62
7
100
AcDbLine
39
0.
10
886760.65000000002
20
296968.28000000003
30
0.
11
886761.40000000002
21
296968.44
31
0.
0
LINE
5
734d2
100
AcDbEntity
8
ITR-7-FEKVESHATAR
6
0_18_-_Folyamatos_
62
7
100
AcDbLine
39
0.
10
886761.40000000002
20
296968.44
30
0.
11
886769.17000000004
21
296970.08000000002
31
0.
0
LINE
5
734d3
100
AcDbEntity
8
ITR-7-FEKVESHATAR
6
0_18_-_Folyamatos_
62
7
100
AcDbLine
39
0.
10
886621.93999999994
20
296889.95000000001
30
0.
11
886655.23999999999
21
296886.20000000001
31
0.
0
LINE
5
734d4
100
AcDbEntity
8
ITR-7-FEKVESHATAR
6
0_18_-_Folyamatos_
62
7
100
AcDbLine
39
0.
10
886655.23999999999
20
296886.20000000001
30
0.
11
886674.81999999995
21
296890.38
31
0.
0
LINE
5
734d5
100
AcDbEntity
8
ITR-7-FEKVESHATAR
6
0_18_-_Folyamatos_
62
7
100
AcDbLine
39
0.
10
886674.81999999995
20
296890.38
30
0.
11
886727.69999999995
21
296901.64000000001
31
0.
0
LINE
5
734d6
100
AcDbEntity
8
ITR-7-FEKVESHATAR
6
0_18_-_Folyamatos_
62
7
100
AcDbLine
39
0.
10
886767.40000000002
20
296918.84999999998
30
0.
11
886768.37
21
296911.75
31
0.
0
LINE
5
734d7
100
AcDbEntity
8
ITR-7-FEKVESHATAR
6
0_18_-_Folyamatos_
62
7
100
AcDbLine
39
0.
10
886768.56000000006
20
296910.34999999998
30
0.
11
886768.37
21
296911.75
31
0.
0
LINE
5
734d8
100
AcDbEntity
8
ITR-7-FEKVESHATAR
6
0_18_-_Folyamatos_
62
7
100
AcDbLine
39
0.
10
886763.53000000003
20
296947.20000000001
30
0.
11
886760.65000000002
21
296968.28000000003
31
0.
0
LINE
5
734d9
100
AcDbEntity
8
ITR-7-FEKVESHATAR
6
0_18_-_Folyamatos_
62
7
100
AcDbLine
39
0.
10
886764.43000000005
20
296940.56
30
0.
11
886764.48999999999
21
296940.17999999999
31
0.
0
LINE
5
734da
100
AcDbEntity
8
ITR-7-FEKVESHATAR
6
0_18_-_Folyamatos_
62
7
100
AcDbLine
39
0.
10
886763.53000000003
20
296947.20000000001
30
0.
11
886764.43000000005
21
296940.56
31
0.
0
LINE
5
734db
100
AcDbEntity
8
ITR-7-FEKVESHATAR
6
0_18_-_Folyamatos_
62
7
100
AcDbLine
39
0.
10
886764.48999999999
20
296940.17999999999
30
0.
11
886767.40000000002
21
296918.84999999998
31
0.
0
LINE
5
734dc
100
AcDbEntity
8
ITR-7-FEKVESHATAR
6
0_18_-_Folyamatos_
62
7
100
AcDbLine
39
0.
10
886792.43999999994
20
296974.98999999999
30
0.
11
886799.40000000002
21
296976.46000000002
31
0.
0
LINE
5
734dd
100
AcDbEntity
8
ITR-7-FEKVESHATAR
6
0_18_-_Folyamatos_
62
7
100
AcDbLine
39
0.
10
886784.96999999997
20
296973.41999999998
30
0.
11
886792.43999999994
21
296974.98999999999
31
0.
0
LINE
5
734de
100
AcDbEntity
8
ITR-7-FEKVESHATAR
6
0_18_-_Folyamatos_
62
7
100
AcDbLine
39
0.
10
886799.40000000002
20
296976.46000000002
30
0.
11
886807.33999999997
21
296978.14000000001
31
0.
0
LINE
5
734df
100
AcDbEntity
8
ITR-7-FEKVESHATAR
6
0_18_-_Folyamatos_
62
7
100
AcDbLine
39
0.
10
886778.98999999999
20
297195.62
30
0.
11
886787.06000000006
21
297192.28000000003
31
0.
0
LINE
5
734e0
100
AcDbEntity
8
ITR-7-FEKVESHATAR
6
0_18_-_Folyamatos_
62
7
100
AcDbLine
39
0.
10
886772.37
20
297198.37
30
0.
11
886778.98999999999
21
297195.62
31
0.
0
LINE
5
734e1
100
AcDbEntity
8
ITR-7-FEKVESHATAR
6
0_18_-_Folyamatos_
62
7
100
AcDbLine
39
0.
10
886798.25
20
297179.95000000001
30
0.
11
886805.43999999994
21
297172.02000000002
31
0.
0
LINE
5
734e2
100
AcDbEntity
8
ITR-7-FEKVESHATAR
6
0_18_-_Folyamatos_
62
7
100
AcDbLine
39
0.
10
886788.87
20
297190.28999999998
30
0.
11
886798.25
21
297179.95000000001
31
0.
0
LINE
5
734e3
100
AcDbEntity
8
ITR-7-FEKVESHATAR
6
0_18_-_Folyamatos_
62
7
100
AcDbLine
39
0.
10
886787.06000000006
20
297192.28000000003
30
0.
11
886788.87
21
297190.28999999998
31
0.
0
LINE
5
734e4
100
AcDbEntity
8
ITR-7-FEKVESHATAR
6
0_18_-_Folyamatos_
62
7
100
AcDbLine
39
0.
10
886676.25
20
297229.73999999999
30
0.
11
886663.93000000005
21
297228.07000000001
31
0.
0
LINE
5
734e5
100
AcDbEntity
8
ITR-7-FEKVESHATAR
6
0_18_-_Folyamatos_
62
7
100
AcDbLine
39
0.
10
886663.35999999999
20
297227.76000000001
30
0.
11
886663.93000000005
21
297228.07000000001
31
0.
0
LINE
5
734e6
100
AcDbEntity
8
ITR-7-FEKVESHATAR
6
0_18_-_Folyamatos_
62
7
100
AcDbLine
39
0.
10
886695.80000000005
20
297232.38
30
0.
11
886695.07999999996
21
297232.28000000003
31
0.
0
LINE
5
734e7
100
AcDbEntity
8
ITR-7-FEKVESHATAR
6
0_18_-_Folyamatos_
62
7
100
AcDbLine
39
0.
10
886690.92000000004
20
297231.71999999997
30
0.
11
886676.25
21
297229.73999999999
31
0.
0
LINE
5
734e8
100
AcDbEntity
8
ITR-7-FEKVESHATAR
6
0_18_-_Folyamatos_
62
7
100
AcDbLine
39
0.
10
886695.80000000005
20
297232.38
30
0.
11
886698.26000000001
21
297231.26000000001
31
0.
0
LINE
5
734e9
100
AcDbEntity
8
ITR-7-FEKVESHATAR
6
0_18_-_Folyamatos_
62
7
100
AcDbLine
39
0.
10
886698.26000000001
20
297231.26000000001
30
0.
11
886711.96999999997
21
297225.03000000003
31
0.
0
LINE
5
734ea
100
AcDbEntity
8
ITR-7-FEKVESHATAR
6
0_18_-_Folyamatos_
62
7
100
AcDbLine
39
0.
10
886695.07999999996
20
297232.28000000003
30
0.
11
886690.92000000004
21
297231.71999999997
31
0.
0
LINE
5
734eb
100
AcDbEntity
8
ITR-7-FEKVESHATAR
6
0_18_-_Folyamatos_
62
7
100
AcDbLine
39
0.
10
886766.66000000003
20
297200.73999999999
30
0.
11
886772.37
21
297198.37
31
0.
0
LINE
5
734ec
100
AcDbEntity
8
ITR-7-FEKVESHATAR
6
0_18_-_Folyamatos_
62
7
100
AcDbLine
39
0.
10
886763.17000000004
20
297202.17999999999
30
0.
11
886766.66000000003
21
297200.73999999999
31
0.
0
LINE
5
734ed
100
AcDbEntity
8
ITR-7-FEKVESHATAR
6
0_18_-_Folyamatos_
62
7
100
AcDbLine
39
0.
10
886644.18000000005
20
297203.65999999997
30
0.
11
886642.37
21
297216.53000000003
31
0.
0
LINE
5
734ee
100
AcDbEntity
8
ITR-7-FEKVESHATAR
6
0_18_-_Folyamatos_
62
7
100
AcDbLine
39
0.
10
886642.37
20
297216.53000000003
30
0.
11
886656.12
21
297223.89000000001
31
0.
0
LINE
5
734ef
100
AcDbEntity
8
ITR-7-FEKVESHATAR
6
0_18_-_Folyamatos_
62
7
100
AcDbLine
39
0.
10
886752.80000000005
20
297206.47999999998
30
0.
11
886763.17000000004
21
297202.17999999999
31
0.
0
LINE
5
734f0
100
AcDbEntity
8
ITR-7-FEKVESHATAR
6
0_18_-_Folyamatos_
62
7
100
AcDbLine
39
0.
10
886711.96999999997
20
297225.03000000003
30
0.
11
886752.80000000005
21
297206.47999999998
31
0.
0
LINE
5
734f1
100
AcDbEntity
8
ITR-7-FEKVESHATAR
6
0_18_-_Folyamatos_
62
7
100
AcDbLine
39
0.
10
886656.12
20
297223.89000000001
30
0.
11
886663.35999999999
21
297227.76000000001
31
0.
0
LINE
5
734f2
100
AcDbEntity
8
ITR-7-FEKVESHATAR
6
0_18_-_Folyamatos_
62
7
100
AcDbLine
39
0.
10
886807.33999999997
20
296978.14000000001
30
0.
11
886816.29000000004
21
296980.03000000003
31
0.
0
LINE
5
734f3
100
AcDbEntity
8
ITR-7-FEKVESHATAR
6
0_18_-_Folyamatos_
62
7
100
AcDbLine
39
0.
10
886903.05000000005
20
296998.34999999998
30
0.
11
886913.20999999996
21
297000.5
31
0.
0
LINE
5
734f4
100
AcDbEntity
8
ITR-7-FEKVESHATAR
6
0_18_-_Folyamatos_
62
7
100
AcDbLine
39
0.
10
886899.10999999999
20
296997.52000000002
30
0.
11
886903.05000000005
21
296998.34999999998
31
0.
0
LINE
5
734f5
100
AcDbEntity
8
ITR-7-FEKVESHATAR
6
0_18_-_Folyamatos_
62
7
100
AcDbLine
39
0.
10
886890.13
20
296995.63
30
0.
11
886899.10999999999
21
296997.52000000002
31
0.
0
LINE
5
734f6
100
AcDbEntity
8
ITR-7-FEKVESHATAR
6
0_18_-_Folyamatos_
62
7
100
AcDbLine
39
0.
10
886880.12
20
296993.51000000001
30
0.
11
886890.13
21
296995.63
31
0.
0
LINE
5
734f7
100
AcDbEntity
8
ITR-7-FEKVESHATAR
6
0_18_-_Folyamatos_
62
7
100
AcDbLine
39
0.
10
886869.80000000005
20
296991.33000000002
30
0.
11
886880.12
21
296993.51000000001
31
0.
0
LINE
5
734f8
100
AcDbEntity
8
ITR-7-FEKVESHATAR
6
0_18_-_Folyamatos_
62
7
100
AcDbLine
39
0.
10
886860.81999999995
20
296989.44
30
0.
11
886869.80000000005
21
296991.33000000002
31
0.
0
LINE
5
734f9
100
AcDbEntity
8
ITR-7-FEKVESHATAR
6
0_18_-_Folyamatos_
62
7
100
AcDbLine
39
0.
10
886816.29000000004
20
296980.03000000003
30
0.
11
886825.52000000002
21
296981.97999999998
31
0.
0
LINE
5
734fa
100
AcDbEntity
8
ITR-7-FEKVESHATAR
6
0_18_-_Folyamatos_
62
7
100
AcDbLine
39
0.
10
886843.71999999997
20
296985.82000000001
30
0.
11
886852.27000000002
21
296987.63
31
0.
0
LINE
5
734fb
100
AcDbEntity
8
ITR-7-FEKVESHATAR
6
0_18_-_Folyamatos_
62
7
100
AcDbLine
39
0.
10
886852.27000000002
20
296987.63
30
0.
11
886860.81999999995
21
296989.44
31
0.
0
LINE
5
734fc
100
AcDbEntity
8
ITR-7-FEKVESHATAR
6
0_18_-_Folyamatos_
62
7
100
AcDbLine
39
0.
10
886834.51000000001
20
296983.88
30
0.
11
886843.71999999997
21
296985.82000000001
31
0.
0
LINE
5
734fd
100
AcDbEntity
8
ITR-7-FEKVESHATAR
6
0_18_-_Folyamatos_
62
7
100
AcDbLine
39
0.
10
886825.52000000002
20
296981.97999999998
30
0.
11
886834.51000000001
21
296983.88
31
0.
0
LINE
5
734fe
100
AcDbEntity
8
ITR-6-TELEPULESHAT
6
0_18_-_Folyamatos_
62
6
100
AcDbLine
39
0.
10
886918.89000000001
20
297001.70000000001
30
0.
11
886918.81999999995
21
297002.27000000002
31
0.
0
LINE
5
734ff
100
AcDbEntity
8
ITR-6-TELEPULESHAT
6
0_18_-_Folyamatos_
62
6
100
AcDbLine
39
0.
10
886918.81999999995
20
297002.27000000002
30
0.
11
886913.75
21
297045.62
31
0.
0
LINE
5
73500
100
AcDbEntity
8
ITR-7-FEKVESHATAR
6
0_18_-_Folyamatos_
62
7
100
AcDbLine
39
0.
10
886918.81999999995
20
297002.27000000002
30
0.
11
886918.89000000001
21
297001.70000000001
31
0.
0
LINE
5
73501
100
AcDbEntity
8
ITR-7-FEKVESHATAR
6
0_18_-_Folyamatos_
62
7
100
AcDbLine
39
0.
10
886913.20999999996
20
297000.5
30
0.
11
886918.89000000001
21
297001.70000000001
31
0.
0
LINE
5
73502
100
AcDbEntity
8
ITR-7-FEKVESHATAR
6
0_18_-_Folyamatos_
62
7
100
AcDbLine
39
0.
10
886875.12
20
297136.34000000003
30
0.
11
886884.62
21
297134.38
31
0.
0
LINE
5
73503
100
AcDbEntity
8
ITR-7-FEKVESHATAR
6
0_18_-_Folyamatos_
62
7
100
AcDbLine
39
0.
10
886912.18000000005
20
297068.23999999999
30
0.
11
886913.75
21
297045.62
31
0.
0
LINE
5
73504
100
AcDbEntity
8
ITR-7-FEKVESHATAR
6
0_18_-_Folyamatos_
62
7
100
AcDbLine
39
0.
10
886913.06000000006
20
297072.65999999997
30
0.
11
886915.96999999997
21
297087.34000000003
31
0.
0
LINE
5
73505
100
AcDbEntity
8
ITR-7-FEKVESHATAR
6
0_18_-_Folyamatos_
62
7
100
AcDbLine
39
0.
10
886912.5
20
297069.83000000002
30
0.
11
886913.06000000006
21
297072.65999999997
31
0.
0
LINE
5
73506
100
AcDbEntity
8
ITR-7-FEKVESHATAR
6
0_18_-_Folyamatos_
62
7
100
AcDbLine
39
0.
10
886912.18000000005
20
297068.23999999999
30
0.
11
886912.5
21
297069.83000000002
31
0.
0
LINE
5
73507
100
AcDbEntity
8
ITR-6-TELEPULESHAT
6
0_18_-_Folyamatos_
62
6
100
AcDbLine
39
0.
10
886913.06000000006
20
297072.65999999997
30
0.
11
886912.5
21
297069.83000000002
31
0.
0
LINE
5
73508
100
AcDbEntity
8
ITR-6-TELEPULESHAT
6
0_18_-_Folyamatos_
62
6
100
AcDbLine
39
0.
10
886912.5
20
297069.83000000002
30
0.
11
886912.18000000005
21
297068.23999999999
31
0.
0
LINE
5
73509
100
AcDbEntity
8
ITR-6-TELEPULESHAT
6
0_18_-_Folyamatos_
62
6
100
AcDbLine
39
0.
10
886913.75
20
297045.62
30
0.
11
886912.18000000005
21
297068.23999999999
31
0.
0
LINE
5
7350a
100
AcDbEntity
8
ITR-7-FEKVESHATAR
6
0_18_-_Folyamatos_
62
7
100
AcDbLine
39
0.
10
886913.75
20
297045.62
30
0.
11
886918.81999999995
21
297002.27000000002
31
0.
0
LINE
5
7350b
100
AcDbEntity
8
ITR-6-TELEPULESHAT
6
0_18_-_Folyamatos_
62
6
100
AcDbLine
39
0.
10
886922.89000000001
20
297122.20000000001
30
0.
11
886917.33999999997
21
297094.22999999998
31
0.
0
LINE
5
7350c
100
AcDbEntity
8
ITR-7-FEKVESHATAR
6
0_18_-_Folyamatos_
62
7
100
AcDbLine
39
0.
10
886922.89000000001
20
297122.20000000001
30
0.
11
886923.89000000001
21
297126.28999999998
31
0.
0
LINE
5
7350d
100
AcDbEntity
8
ITR-6-TELEPULESHAT
6
0_18_-_Folyamatos_
62
6
100
AcDbLine
39
0.
10
886922.89000000001
20
297122.20000000001
30
0.
11
886923.89000000001
21
297126.28999999998
31
0.
0
LINE
5
7350e
100
AcDbEntity
8
ITR-6-TELEPULESHAT
6
0_18_-_Folyamatos_
62
6
100
AcDbLine
39
0.
10
886917.33999999997
20
297094.22999999998
30
0.
11
886915.96999999997
21
297087.34000000003
31
0.
0
LINE
5
7350f
100
AcDbEntity
8
ITR-7-FEKVESHATAR
6
0_18_-_Folyamatos_
62
7
100
AcDbLine
39
0.
10
886915.96999999997
20
297087.34000000003
30
0.
11
886917.33999999997
21
297094.22999999998
31
0.
0
LINE
5
73510
100
AcDbEntity
8
ITR-7-FEKVESHATAR
6
0_18_-_Folyamatos_
62
7
100
AcDbLine
39
0.
10
886917.33999999997
20
297094.22999999998
30
0.
11
886922.89000000001
21
297122.20000000001
31
0.
0
LINE
5
73511
100
AcDbEntity
8
ITR-6-TELEPULESHAT
6
0_18_-_Folyamatos_
62
6
100
AcDbLine
39
0.
10
886915.96999999997
20
297087.34000000003
30
0.
11
886913.06000000006
21
297072.65999999997
31
0.
0
LINE
5
73512
100
AcDbEntity
8
ITR-7-FEKVESHATAR
6
0_18_-_Folyamatos_
62
7
100
AcDbLine
39
0.
10
886805.43999999994
20
297172.02000000002
30
0.
11
886814.48999999999
21
297162.04999999999
31
0.
0
LINE
5
73513
100
AcDbEntity
8
ITR-7-FEKVESHATAR
6
0_18_-_Folyamatos_
62
7
100
AcDbLine
39
0.
10
886814.48999999999
20
297162.04999999999
30
0.
11
886824.44999999995
21
297151.07000000001
31
0.
0
LINE
5
73514
100
AcDbEntity
8
ITR-7-FEKVESHATAR
6
0_18_-_Folyamatos_
62
7
100
AcDbLine
39
0.
10
886829.22999999998
20
297145.79999999999
30
0.
11
886832.32999999996
21
297145.15999999997
31
0.
0
LINE
5
73515
100
AcDbEntity
8
ITR-7-FEKVESHATAR
6
0_18_-_Folyamatos_
62
7
100
AcDbLine
39
0.
10
886832.32999999996
20
297145.15999999997
30
0.
11
886841.71999999997
21
297143.22999999998
31
0.
0
LINE
5
73516
100
AcDbEntity
8
ITR-7-FEKVESHATAR
6
0_18_-_Folyamatos_
62
7
100
AcDbLine
39
0.
10
886824.44999999995
20
297151.07000000001
30
0.
11
886829.22999999998
21
297145.79999999999
31
0.
0
LINE
5
73517
100
AcDbEntity
8
ITR-7-FEKVESHATAR
6
0_18_-_Folyamatos_
62
7
100
AcDbLine
39
0.
10
886892.40000000002
20
297132.78000000003
30
0.
11
886897.28000000003
21
297131.77000000002
31
0.
0
LINE
5
73518
100
AcDbEntity
8
ITR-7-FEKVESHATAR
6
0_18_-_Folyamatos_
62
7
100
AcDbLine
39
0.
10
886884.62
20
297134.38
30
0.
11
886892.40000000002
21
297132.78000000003
31
0.
0
LINE
5
73519
100
AcDbEntity
8
ITR-7-FEKVESHATAR
6
0_18_-_Folyamatos_
62
7
100
AcDbLine
39
0.
10
886897.28000000003
20
297131.77000000002
30
0.
11
886919.94999999995
21
297127.09999999998
31
0.
0
LINE
5
7351a
100
AcDbEntity
8
ITR-7-FEKVESHATAR
6
0_18_-_Folyamatos_
62
7
100
AcDbLine
39
0.
10
886841.71999999997
20
297143.22999999998
30
0.
11
886852.04000000004
21
297141.09999999998
31
0.
0
LINE
5
7351b
100
AcDbEntity
8
ITR-7-FEKVESHATAR
6
0_18_-_Folyamatos_
62
7
100
AcDbLine
39
0.
10
886852.04000000004
20
297141.09999999998
30
0.
11
886875.12
21
297136.34000000003
31
0.
0
LINE
5
7351c
100
AcDbEntity
8
ITR-7-FEKVESHATAR
6
0_18_-_Folyamatos_
62
7
100
AcDbLine
39
0.
10
886919.94999999995
20
297127.09999999998
30
0.
11
886923.89000000001
21
297126.28999999998
31
0.
0
ENDSEC
0
SECTION
2
OBJECTS
0
DICTIONARY
5
7351d
100
AcDbDictionary
3
ACAD_GROUP
350
7351e
3
ACAD_MLINESTYLE
350
7351f
0
DICTIONARY
5
7351e
100
AcDbDictionary
0
DICTIONARY
5
73520
100
AcDbDictionary
0
DICTIONARY
5
7351f
100
AcDbDictionary
3
STANDARD
350
73521
0
MLINESTYLE
5
73521
100
AcDbMlineStyle
2
STANDARD
70
0
3

62
0
51
90.0
52
90.0
71
2
49
0.5
62
256
6
BYLAYER
49
-0.5
62
256
6
BYLAYER
0
ENDSEC
0
EOF
